Rootlifter - Green Carpet Corner Chords & Tabs

 

Green Carpet Corner Chords & Tabs

Rootlifter Chords & Tabs

Version: 1 Type: Tab 0 ratings
1 star 2 stars 3 stars 4 stars 5 stars
comments

Green Carpet Corner Tab

   
artist:Rootlifter
song title:Green Carpet Corner
album:not yet established
tabbed by:sean carver

INTRO/VERSE:
e:0-0-0-0-0-0-0-0-0-0-0-0/0-0-0-0-0--0--0-0-0-0-0
B:5-5-5-5-5-5-3-3-3-3-3-3/5-5-5-5-9--8--1-1-1-1-1
G:0-0-0-0-0-0-0-0-0-0-0-0/0-0-0-0-0--0--0-0-0-0-0
D:0-0-0-0-0-0-0-0-0-0-0-0/0-0-0-0-0--0--0-0-0-0-0
A:7-7-7-7-7-7-5-5-5-5-5-5/7-7-7-7-11-10-3-3-3-3-3
E:0-0-0-0-0-0-0-0-0-0-0-0/0-0-0-0-0--0--0-0-0-0-0
it's strummed a lot more than this, im just too lazy to put it all down!

BRIDGE PART 1:
e:0/0-0--0/0-0--0--0--0-0-0-0-0-0
B:7/8-8--7/8-8--11-10-4-4-4-4-4-4
G:6/7-7--6/7-7--10-9--3-3-3-3-3-3
D:x/x-x--x/x-x--x--x--x-x-x-x-x-x
A:4/5-5--4/5-5--8--7--1-1-1-1-1-1
E:x/x-x--x/x-x--x--x--x-x-x-x-x-x

BRIDGE PART 2:
e:-------------------------------
B:----1-0-----3-0-----1-0-----3*-
G:--2---------------2------------
D:---------2----------------2----
A:0------3--------0-------3------
E:-------------------------------

CHORUS:
e:2-2-2-2--0-0-0-0--0-0-0-0--0-0-0-0
B:3-3-3-3--3-3-3-3--3-3-3-3--3-3-3-3
G:2-2-2-2--2-2-2-2--0-0-0-0--0-0-0-0
D:0-0-0-0--2-2-2-2--2-2-2-2--0-0-0-0
A:0-0-0-0--0-0-0-0--3-3-3-3--2-2-2-2
E:0-0-0-0--0-0-0-0--0-0-0-0--3-3-3-3
[ Tab from: http://www.guitartabs.cc/tabs/r/rootlifter/green_carpet_corner_tab.html ]
INTERLUDE PART 1:
e:-----------------------------------------------------
B:------1-------------1-------------0-------------0----
G:----0---0---------0---0---------2---2---------2---2--
D:--2-------2-----2-------2-----2-------2-----2-------2
A:3-------------3-------------0-------------0----------
E:-----------------------------------------------------

SOLO 1:
e:-----------------------------14-------------14---------8------------------
B:------------11h12-9-12h13h14----13-12h13h14----12-8h10---10-7h8h7---------
G:7/9-9h10-12-------------------------------------------------------8-10*-7-
D:--------------------------------------------------------------------------
A:--------------------------------------------------------------------------
E:--------------------------------------------------------------------------
small, mellow solo is played while another guitar plays interlude part 1

INTERLUDE PART 2:
e:0-----------0-----0-----------0--0-----
B:0-----------0-----0-----------0--0-----
G:1-----------8-----1-----------10-5-----
D:2---------5-8-----2---------8-10-5-----
A:2-------5---8-----2-------8---10-5-----
E:0-----3-----6-----0-----6-----8--3-----

SOLO PART 2:
e:----15h16h15----15h16h15-----------------14----12------------
B:18*----------16----------16-10*--10/12/14----12----12h13-10*-
G:17*-------------------------9*-------------------------------
D:-------------------------------------------------------------
A:-------------------------------------------------------------
E:-------------------------------------------------------------
Comments