Rootlifter - Back On My Feet Again Chords & Tabs

 

Back On My Feet Again Chords & Tabs

Rootlifter Chords & Tabs

Version: 1 Type: Tab 0 ratings
1 star 2 stars 3 stars 4 stars 5 stars
comments

Back On My Feet Again Tab

   
artist: rootlifter
title: back on my feet again (michael bolton cover)
album: won't be on one...
tabbed by: sean carver

VERSES/INTRO:
E:5-5-5-5---5-5--5-5-5-5-5--5-5--5-5-5-5-5--5-5--5-5-5-5-5--5-5--
A:3--3-3-3-2-3-3-3--3-3-3-2--3-3-3--3-3-3-2--3-3-3--3-3-3-2--3-3-
D:4--------------0---------------0---------------0---------------
G:0--------------4---------------0---------------0---------------
B:-------------------------------2---------------3---------------
E:---------------------------------------------------------------

ADD THIS IN SOME PARTS:
E:6-6-6-6--
A:-5-5-5-5-
D:---------
G:---------
B:---------
E:---------

CHORUS:
E:0-0-0-0--0-0-0-0--0-0-0-0--3-3-3-3-
A:0-0-0-0--3-3-3-3--2-2-2-2--3-3-3-3-
D:1-1-1-1--2-2-2-2--2-2-2-2--0-0-0-0-
G:2-2-2-2--0-0-0-0--2-2-2-2--0-0-0-0-
B:2-2-2-2--0-0-0-0--0-0-0-0--2-2-2-2-
E:0-0-0-0--------------------3-3-3-3-


LYRICS:
[ Tab from: http://www.guitartabs.cc/tabs/r/rootlifter/back_on_my_feet_again_tab.html ]
gonna break,
these chains around me,
gonna learn,
to fly again,
may be hard,
may be hard,
but i'll do it,
when im back on my feet again,
soon these tears,
will all be drying,
soon these eyes,
will see the sun,
might take time,
might take time,
but i'll see it,
when im back on my feet again...

when im back on my feet again,
i'll walk proud down this street again,
and the lord will look at me again,
and he'll see that im strong...

gonna hear,
the children laughing,
gonna hear,
the voice of sin,
won't be long,
won't be long,
till i hear them,
when im back on my feet again,
im gonna feel,
the sweet light of heaven,
shining down,
its light on me,
one sweet day,
one sweet day,
i will feel it,
when im back on my feet again...

when im back on my feet again,
i'll walk proud down this street again,
and the lord will look at me again,
and he'll see that im strong,
and im not gonna crawl again,
i will learn to stand tall again,
no im not gonna fall again,
cause i'll learn to be strong...

soon these tears,
will all be drying,
soon these eyes,
will see the sun,
won't be long,
won't be long,
till i see it,
when im back on my feet again,
when im back on my feet again,
i'll be back on my feet again...


by maybe michael bolton??? who knows with pop these days...
Comments