Rootjoose - Virtually Fat Free Chords & Tabs

 

Virtually Fat Free Chords & Tabs

Rootjoose Chords & Tabs

Version: 1 Type: Bass Tab 0 ratings
1 star 2 stars 3 stars 4 stars 5 stars
comments

Virtually Fat Free Bass Tab

Band: Rootjoose
Song: Virtually Fat Free
Tabbed By: Simon Poulton (Fungi@localbar.com)

Main Verse:
G:-------------------------
D:-------------------------
A:--3--3-3--1--1-1---------    Repeat As Necassary
E:----------------3-3------
[ Tab from: http://www.guitartabs.cc/tabs/r/rootjoose/virtually_fat_free_btab.html ]
"Talked To By The Papers/TV"
G:----------------------------------------------------------------
D:----------------------------------------------------------------
A:--5-3-3-5-3-3-3-5-3-3-5-3-3-3---1--1-1---0-3--------------------
E:---------------------------------------3------------------------

Chorus:
G:----------------------------------------------------------------
D:----------------------------------------------------------------
A:--3---3--3-3------3-----------3---3--3-3--0--5-5-5-3---------0--   Repeat Twice
E:----3--------3--1---1--1-1--3---3---------------------3--3-3----


This is only my interpretation of the song, and also my first tabs.  If 
you can make any corrections, then please e-mail me, i want to play it 
as much as you do!

Comments