Rootjoose - Taxman Chords & Tabs

 

Taxman Chords & Tabs

Rootjoose Chords & Tabs

Version: 2 Type: Bass Tab 0 ratings
1 star 2 stars 3 stars 4 stars 5 stars
comments

Taxman Bass Tab

Band: Rootjoose
Song: Taxman
Tabbed By: Simon Poulton (Fungi@localbar.com)


Main Riff Version 1:
G:-----7--5-5--7----
D:------------------
A:--5---------------
E:------------------

Main Riff Version 2:
G:-----7--5-5-------
D:-------------7----
A:--5---------------
E:------------------
[ Tab from: http://www.guitartabs.cc/tabs/r/rootjoose/taxman_btab_ver_2.html ]
"Cos I'm The Taxman"
G:------------------------------------------
D:-----7--5-5-------7--5-5------5--3-3------
A:------------7------------7------------5---
E:--5------------5------------3-------------

This is only my interpretation of the song, and also my first tabs.  If 
you can make any corrections, then please e-mail me, i want to play it as 
much as you do!
Comments