Rooster - Staring At The Sun Chords & Tabs

 

Staring At The Sun Chords & Tabs

Rooster Chords & Tabs

Version: 2 Type: Tab 0 ratings
1 star 2 stars 3 stars 4 stars 5 stars
comments

Staring At The Sun Tab

-----------------------------------------------------------------------------
			     Staring at the Sun by Rooster
-----------------------------------------------------------------------------
Tabbed by: Tom Paice
Email: tom_paice@hotmail.com

Tuning: normal

this sounds alright with the song so....
(dont think its the way the dude plays it)
enjoy anyway!

intro (repeat)

e|----------0-------0---------|
B|-----3-------3------3----3--|
G|---2---2-------2------2-----|
D|-0--------------------------|
A|----------------------------|
E|----------------------------|

daylight....
[ Tab from: http://www.guitartabs.cc/tabs/r/rooster/staring_at_the_sun_tab_ver_2.html ]
e|----------0-------0---------|
B|-----3-------3------3----3--|
G|---2---2-------2------2-----|
D|-0--------------------------|
A|----------------------------|
E|----------------------------|

on my....

e|----------0-------0---------|
B|-----0-------0------0----0--|
G|---2---2-------2------2-----|
D|-2--------------------------|
A|----------------------------|
E|----------------------------|

makes me feel...

e|----------0-------0---------|
B|-----1-------1------1----1--|
G|---0---0-------0------0-----|
D|-2--------------------------|
A|----------------------------|
E|----------------------------|


e|-----------3--2--0----------|
B|-----3--------------2-------|
G|---0---0--------------------|
D|-0--------------------------|
A|----------------------------|
E|----------------------------|

chorus is just d, a ,c, g(with the fill at the end as shown above)
i think the pre-chorus is em, a, em, d (guessing- sounds alright though)
Comments