Roosevelt - Montreal Chords & Tabs

 

Montreal Chords & Tabs

Roosevelt Chords & Tabs

Version: 1 Type: Bass Tab 0 ratings
1 star 2 stars 3 stars 4 stars 5 stars
comments

Montreal Bass Tab

   
Montreal- Roosevelt
tabbed by Eugene Skinner
Song is in drop D. (DADG)

Triplets played staccato

Part 1 intro & Verse (main riff)
     D                            A#                     G                         A#  A#  A
G-----------------------------------------------------------------------------------|
D------ T-p-l -----T-p-l-----------------------------T-p-l-----------------------7--|
A----X 5-3-5------5-3-1--1X1X1---/8-------------------------------------------------|
D--0----------0---------------------------5X5X5---10-9-8----8X8X--8X- -7----7-------|repeat
[ Tab from: http://www.guitartabs.cc/tabs/r/roosevelt/montreal_btab.html ]
Chorus
      G          G         A          A      D               D     C
G----------------------------------------------------------------------------------|
D-----------5----------------8----------------12--------------3/5--5-10------------|
A----------------------------------------------------------------------------------|
D---5-5 X 5------8-8 X-8----12-12-X 12-- 10-10 X --------------------------------|repeat


Chorus outro back to verse
      G          G         A          A         D                 D             D#
G-------------------------------------------------------------------------------|
D------------5----------------8-------------------10------------------11--------|
A-------------------------------------------------------------------------------|
D---5-5 X 5------8-8 X-8----10-10- X 10---10-10-X 11-11-X--11------------------|
Comments