Rooney - Popstars Chords & Tabs

 

Popstars Chords & Tabs

Rooney Chords & Tabs

Version: 1 Type: Tab 0 ratings
1 star 2 stars 3 stars 4 stars 5 stars
comments

Popstars Tab

   
Band: Rooney
Song: Popstars
Album: Rooney
Drop-D Tunning

* Well I wasn't going to tab this, but I figured that somebody had to cause I thought
that people might want to learn this song. It's great, and ummm.... easy! There's one
small part w/ another guitar; a lead that Taylor plays! You may leave it out if it's
just you, but if you people are playing you add it in.

Intro- this is the piano part but I think Taylor plays this sometimes.
e---0-8-7---0-7-------|
b-0-------0-----------|
g---------------------|
d---------------------|
a---------------------|
e---------------------|

e-0------------------------|
b-0------------------------|
g-1----999999999-----------|
d-2----999999999-----------|
a-2----777777777-----------|
e-0----000000000-----------|

Verse ( ) -Optional.
e(0)--(0)(0)--3-3-------------|
b(0)---1-1----2-2-------------|
g-1----0-0----3-3-------------|
d-2----2-2----0-0-------------|
a-2----3-3--------------------|
e-----------------------------|

Pre-chorus
e-7-5-7--5-7-5-7-5-7-5-7-4-5-4-2-0--4-5-7------|
b----------------------------------------------|
g----------------------------------------------|
d----------------------------------------------|
a----------------------------------------------|
e----------------------------------------------|

e-----0------0--0-0---0-0----------------|
b-----0------0--0-0---0-0--7-7-7-7-------|
g-5-5-5--4-4-4--7-7---7-7--7-7-7-7-------|
d-5-5-5--4-4-4--7-7---7-7--7-7-7-7-------|
a-3-3-3--2-2-2--5-5---5-5--5-5-5-5-------|
e----------------------------------------|
[ Tab from: http://www.guitartabs.cc/tabs/r/rooney/popstars_tab.html ]
Chorus
e-----------------------------------------------------------------------------|
b-----------------------------------------------------------------------------|
g-9-9--9-9-9-9-9-9----------9-9-7-7------4444---------------------1-----------|
d-9-9--9-9-9-9-9-9-9-9-9-9--9-9-7-7-4444-4444-4-4-4-4--7-7--9-9---2-----------|
a-7-7--7-7-0-0-0-0-9-9-9-9--7-7-5-5-4444-2222-4-4-4-4--7-7--9-9---2-----------|
e-0-0--0-0---------7-7-7-7--0-0-----2222------2-2-2-2--5-5--7-7---0-----------|

+only on first verse, second goes into bridge
Bridge
e---------------------------------|
b-5555-7777-9999------------------|
g-5555-7777-9999------------------|
d-5555-7777-9999------------------|
a-3333-5555-7777------------------|
e---------------------------------|

Solo
e--------------------------------------------------------------------------|
b-12-10-12-10-12-10-12-10-12-10-12--9-10-9-7-5-9-10-12---------------------|
g--------------------------------------------------------------------------|
d--------------------------------------------------------------------------|
a--------------------------------------------------------------------------|
e--------------------------------------------------------------------------|

Break
Guitar 1-Robert
e-----0-------0-|0-0---0-0------------|---------------------------|
b-----0-------0-|0-0---0-0--7-7-7-7-|-----------------------------|
g-5-5-5--4-4-4-|-7-7---7-7--7-7-7-7-|--9---------9---9------------|
d-5-5-5--4-4-4-|-7-7---7-7--7-7-7-7-|--9------9------9------------|
a-3-3-3--2-2-2-|-5-5---5-5--5-5-5-5-|--7---7---------7------------|
e-----------------|------------------------|---------0------------|

Guitar 2-Taylor-this plays when the section above plays. Understand?
e-|----------------------------------------|---------------------------|
b-|----------------------------------------|---------------------------|
g-|--------------------------------------- |---------------------------|
d-|-2h4-4-4-4-5-5-5-5-7-7-7-7-9-9-11-11-------|------------------------|
a-|---------------|----------------------------------------------------|
e-|----------------------------------------|---------------------------|

Outro
e-------------0------------------|
b-------------0------------------|
g-------------9------------------|
d-5555-7777---9------------------|
a-5555-7777---7------------------|
e-3333-5555---0------------------|

Intro
Verse
Pre-Chorus
Chorus
Intro
Verse
Pre-Chorus
Chorus
Bridge
Solo
Break
Chorus
Outro
Comments