Rooney - Oh What A Day Chords & Tabs

 

Oh What A Day Chords & Tabs

Rooney Chords & Tabs

Version: 1 Type: Tab 0 ratings
1 star 2 stars 3 stars 4 stars 5 stars
comments

Oh What A Day Tab

Song: Oh what a day
Artist: Rooney 
Standard Tuning

Good Song from a Great Band. Just Figure out the Strumming and the last part and you'll
be good.


Intro:

|--------------------------------------------------------|
|--------------------------------------------------------|
|---------------------7-7-7-7-------------------7-7-7-7--|
|---7-7-7-7-7-7-7-7-7-7-7-7-7-7-7-7-7-7-7-7-7-7-7-7-7-7--|
|---7-7-7-7-7-7-7-7-7-5-5-5-5-7-7-7-7-7-7-7-7-7-5-5-5-5--|
|---5-5-5-5-5-5-5-5-5---------5-5-5-5-5-5-5-5-5----------| play this part 2x

i think this part is played by the keyboard, but here it is anyways.

|------9-9-9-12-9-9-9-9-12-9-9-9-7-------9-9-7--------|
|---------------------------------10-7-10-----10-7-10-|
|-----------------------------------------------------|
|-----------------------------------------------------|
|-----------------------------------------------------|

|-----------------------------------------------------------------|
|-----------------------------------------------------------------|
|-----------------9-9-9-9-9-9-9-9-4-4-4-4-4-4-4-4-7-7-7-7-7-7-7-7-|
|-7-7-7-7-7-7-7-7-9-9-9-9-9-9-9-9-4-4-4-4-4-4-4-4-7-7-7-7-7-7-7-7-|
|-7-7-7-7-7-7-7-7-7-7-7-7-7-7-7-7-2-2-2-2-2-2-2-2-5-5-5-5-5-5-5-5-|
|-5-5-5-5-5-5-5-5-------------------------------------------------|
it changes it up a bit. But it's super easy to figure out. I did.

Verse:
|---------------------|
|---------------------|
|-------6-6-6-7-7-7-7-|
|-7-7-7-6-6-6-7-7-7-7-|
|-7-7-7-4-4-4-5-5-5-5-|
|-5-5-5---------------|
[ Tab from: http://www.guitartabs.cc/tabs/r/rooney/oh_what_a_day_tab.html ]
"I hadn't met you, from what I heard I heard I thought I had..."
The strumming is pretty simple. 

|---------------------------------------------------------------------|
|---------------------------------------------------------------------|
|-----------6-6-6-6-6-7-7-7-7-7-7-------------------------7-7-7-7-7-7-|
|-7-7-7-7-7-6-6-6-6-6-7-7-7-7-7-7-7-7-7-7-7-7-9-9-9-9-9-9-7-7-7-7-7-7-|
|-7-7-7-7-7-4-4-4-4-4-5-5-5-5-5-5-7-7-7-7-7-7-9-9-9-9-9-9-5-5-5-5-5-5-|
|-5-5-5-5-5-----------------------5-5-5-5-5-5-7-7-7-7-7-7-------------|

"you don't play games, you make mistakes"

Chorus:

|--------------------------------------------------------------------------|
|--------------------------------------------------------------------------|
|------------9-9-9-9-9-9-7-7-7-7-7-7-7-6-6-6-6-6-6-6-6-4-4-4-4-4-4-7-7-7-7-|
|7-7-7-7-7-7-9-9-9-9-9-9-7-7-7-7-7-7-7-6-6-6-6-6-6-6-6-4-4-4-4-4-4-7-7-7-7-|
|7-7-7-7-7-7-7-7-7-7-7-7-5-5-5-5-5-5-5-4-4-4-4-4-4-4-4-2-2-2-2-2-2-5-5-5-5-|
|5-5-5-5-5-5---------------------------------------------------------------|
"oh what a day, oh oh what a day, I can't stop thinking of you."
then play intro again

Same for second verse and chorus.

Bridge:

|---9-12-14-9-9-9-9-9--|
|------------7---7---7-|
|----------------------|
|----------------------|
|----------------------|
|----------------------| play as many times as it's played. 

I couldn't figure out the rhythm chords for this but I will try to get them for you. 
 
After this just play the chorus and then that's practically it. So um, sorry I couldn't
finish the entire tab, but what's a 14 year old to do? Great song. Enjoy.
Comments