Rooney - Im Shaking Chords & Tabs

 

Im Shaking Chords & Tabs

Rooney Chords & Tabs

Version: 1 Type: Tab 0 ratings
1 star 2 stars 3 stars 4 stars 5 stars
comments

Im Shaking Tab

This is the rythm guitar part. Any questions, comments, hate mail,
send it off at delerious_me@msn.com. Enjoy. <3
*Sorry for the previous fault in the chords. They were right... just...
in the wrong places. Sorry for the inconvenience.

      x - muted, struck string


INTRO

E--6-----4----
B--8--4--6----
G--8--6--6----
D-----6-------  (let the notes ring)
A-------------
E-------------

E---------------------------------------------------------
B---------------------------------------------------------
G-----------66666666------------------66666666-88888888---
D--88888888-66666666-6666666666666666-66666666-88888888---
A--88888888-44444444-6666666666666666-44444444-66666666---
E--66666666----------4444444444444444---------------------


VERSE

E-------------------------------------------      -----------
B-------------------------------------------      ----------
G--666xx666---------------888xx888888xx888--      --3-5-3-5--
D--666xx666----888xx888---888xx888888xx888--  x4  --3-5-3-5--
A--444xx444----888xx888---666xx666666xx666--      --1-3-1-3--
E--------------666xx666---------------------      -----------
  "I've forg..."	   "to feel normal..."	  "Now I'm..."

CHORUS

E----------------------------------------
B----------------------------------------
G-------------------6666666666666666-888-
D--6666666666666666-6666666666666666-888-  x2
A--6666666666666666-4444444444444444-666-
E--4444444444444444----------------------
   "Sha sha Shaking..."
[ Tab from: http://www.guitartabs.cc/tabs/r/rooney/im_shaking_tab.html ]
E--------------------------------------------------------
B--------------------------------------------------------
G-----------66666666---------------------------88888888--
D--88888888-66666666-6666666666666666-88888888-88888888--
A--88888888-44444444-6666666666666666-88888888-66666666--
E--66666666----------4444444444444444-66666666-----------
   ".....now...."
   <--These 3 are the intro chords-->

BRIDGE

E-----------------------------------------
B-----------------------------------------
G-------------------------------------66--
D--6666666666666666-8888888888888888--66--
A--6666666666666666-8888888888888888--44--
E--4444444444444444-6666666666666666------
  "I'm supposed..." "... better..."

E-------------------------------------------------------
B-------------------------------------------------------
G----------------------------55555555-66666666-55555555-
D--6666666666666666-88888888-55555555-66666666-55555555-
A--6666666666666666-88888888-33333333-44444444-33333333-
E--4444444444444444-66666666----------------------------
  "this nightmare's..."	  "...to end..."

E-------------------------------------------------------
B-------------------------------------------------------
G--33333333-55555555-6666666-55555555-66666666-88888888-
D--33333333-55555555-6666666-55555555-66666666-88888888-
A--11111111-33333333-4444444-33333333-44444444-66666666-
E-------------------------------------------------------
 "..holding on..."               "...holding on..."

End on

E-----
B-----
G-----
D--6--
A--6--
E--4--


SONG ORDER:

Intro
Verse
Chorus
Verse
Chorus (without intro chords)
Bridge
Chorus x3

--------
Comments