Rooney - Daisy Duke Chords & Tabs

 

Daisy Duke Chords & Tabs

Rooney Chords & Tabs

Version: 3 Type: Tab 0 ratings
1 star 2 stars 3 stars 4 stars 5 stars
comments

Daisy Duke Tab

   
 Rooney
 Daisy Duke

 -Standard Tuning
 -Key: A (major)
 -Two Guitars
 -With Distortion

Tabbed by JonAR1027; (JonAR1027@aol.com).  Song is not difficult, although some parts of the solo could
be a bit tricky at first.  If you have trouble, just keep repeating it until it comes naturally.  Read 
the tab carefully and listen to the song and you should get it down.  I suggest playing along with the 
song so you know where each chord or note is supposed to be.  Any questions or comments, feel free to 
e-mail me.

Intro 
(Keyboard arranged for guitar)
 e|--14-12--9-7--7----9-7-----|
 B|----------------10-----10--|
 G|---------------------------|
 D|---------------------------|
 A|---------------------------|
 E|---------------------------|

Pre-verse
 e|--5-----2-----
 B|--5-----3-----
 G|--6--1--4--1--   x1
 D|--7--2--4--2--
 A|--7--2--2--2--
 E|--5-----2-----

Verse 1                  Bridge 1  		  
"I want to know..."      "I'll give you a taste..."     "Bow down daisy duke"
 e|--5-----2-----         e|-----------                  e|-----
 B|--5-----3-----         B|-----------                  B|-----
 G|--6--1--4--1--   x2    G|-----------   x1             G|-----
 D|--7--2--4--2--         D|--------4--                  D|--6--
 A|--7--2--2--2--         A|--4--7--2--                  A|--4--
 E|--5-----2-----         E|--2--5-----                  E|-----

Chorus
"You don't know me so well..."   "Bow down daisy duke"
 e|--------------                 e|-----                 e|-----------
 B|--------------                 B|-----                 B|-----------
 G|--------1-----   x4            G|-----   strummed      G|-----------
 D|-----4--2-----                 D|--6--   once then...  D|--(6)\0/\--
 A|--4--2--2--7--                 A|--4--                 A|--(4)\0/\--
 E|--2--------5--                 E|-----                 E|-----------

Pre-verse
 e|--5-----2-----
 B|--5-----3-----
 G|--6--1--4--1--   x1
 D|--7--2--4--2--
 A|--7--2--2--2--
 E|--5-----2-----

Verse 2                  Bridge 2  		  
"Sit on my couch..."     "Don't you say no to me..."    "Bow down daisy duke"
 e|--5-----2-----         e|-----------                  e|-----
 B|--5-----3-----         B|-----------                  B|-----
 G|--6--1--4--1--   x2    G|-----------   x1             G|-----
 D|--7--2--4--2--         D|--------4--                  D|--6--
 A|--7--2--2--2--         A|--4--7--2--                  A|--4--
 E|--5-----2-----         E|--2--5-----                  E|-----
[ Tab from: http://www.guitartabs.cc/tabs/r/rooney/daisy_duke_tab_ver_3.html ]
Chorus
"You don't know me so well..."	  "Bow down daisy duke"
 e|--------------                  e|---------------------
 B|--------------                  B|---------------------
 G|--------1-----   x4             G|--------9p6h9p6h9p6--   x2  into...
 D|-----4--2-----                  D|--6------------------
 A|--4--2--2--7--                  A|--4--7---------------
 E|--2--------5--                  E|-----5---------------

Pre-solo
"Bow down daisy duuuuuuuu..."
 e|-----/5----
 B|--------7--
 G|-----------
 D|--6--------
 A|--4--------
 E|-----------

Guitar Solo
Guitar 2:  (while guitar 1 plays chorus)
 e|-----------------------------------------------------
 B|-----------------------------------------------------
 G|--2-----2----------2-----2--4b6r4(slow)-4b6r4(fast)--
 D|----4-2----2-4-2-4---4-2-----------------------------
 A|-----------------------------------------------------
 E|-----------------------------------------------------

 e|------------2-7-5-----------------------------------------
 B|----------2-------5-6-7-----------------------------------
 G|------2-4---------------6~--7-9----2---1--------------2~--
 D|--2-4----------------------------2---2---2-4---2--3-4-----
 A|---------------------------------------------4------------
 E|----------------------------------------------------------

 e|------------------------------------------------------------|
 B|------------------------------------------------------------|
 G|------2-4b6-6r4~--2-4-4b6r4b6-------------------------------|
 D|--2-4-------------------------4b6r4b6--0-2-0----------------|
 A|---------------------------------------------4-2-0----------|
 E|---------------------------------------------------2-4-2/\--|

Interlude
"I'm much too rough with..."
 e|------------------------------------------------
 B|------------------------------------------------
 G|--------1--------1--------------1--------1------   into...
 D|-----4--2--------2-----------4--2--------2------
 A|--4--2--2--7---7-2-3-4\---4--2--2--7---7-2-3-4--
 E|--2--------5---5---1-2\---2--------5---5---1-2--

Bridge  (begins on last chord of Interlude)
Guitar 2:  (while guitar 1 plays chorus)
 e|-------------------------------------------------------
 B|-------------------------------------------------------
 G|--2-----2----------2-----2--4b6(slow)--2-----2------2--  into...
 D|----4-2----4-2-3-4---4-2-----------------4-2----2-4----
 A|-------------------------------------------------------
 E|-------------------------------------------------------

"Bow down daisy duke" 
 e|-------------
 B|-------------
 G|-6-6--6-6-6--   x3
 D|-------------
 A|-------------
 E|-------------

Chorus
"You don't know me so well..."	  "Bow down daisy duke"
 e|--------------                  e|---------------------
 B|--------------                  B|---------------------
 G|--------1-----   x4             G|--------9p6h9p6h9p6--   x2  into...
 D|-----4--2-----                  D|--6------------------
 A|--4--2--2--7--                  A|--4--7---------------
 E|--2--------5--                  E|-----5---------------

End
Guitar 1:			Guitar 2:
"Bow down daisy duuuuuuuu..."	"Bow down daisy duuuuuuuu..."
 e|--------|			 e|-----5--|
 B|--------|			 B|--------|
 G|--------|			 G|--------|
 D|--6-----|			 D|--6-----|
 A|--4--4--|			 A|--4-----|
 E|-----2--|			 E|--------|
Comments