Rooney - Daisy Duke Chords & Tabs

 

Daisy Duke Chords & Tabs

Rooney Chords & Tabs

Version: 1 Type: Tab 0 ratings
1 star 2 stars 3 stars 4 stars 5 stars
comments

Daisy Duke Tab

Daisy Duke By Rooney     www.rooney-band.com this band is awesome check them out



E-------------------------2----------------|
A--------------2----------4-----------2----|    Verse1&2 (2 is just plammuted)
D-----2--------2---x8-----4-----------2x8-|
G-----2x8-----1----------2-----------1----| play once then play palm-muted 2
B-----2-------------------3--x8------------|
E-------------------------2----------------|

[ Tab from: http://www.guitartabs.cc/tabs/r/rooney/daisy_duke_tab.html ]
E-----2-------------------------------------|
A-----4x6-------------2---------4----------|  play once (pre chorus?)
D----------------3-----4---x8----6x5-------|
G----------------3x6-----------------------|
B----------------3--------------------------|
E-------------------------------------------|


E----2--------------------------------------         play three times  
A----4x2---2-------------------------------
D-----------4-x3---2------------------------
G------------------2-------2----------------
B------------------2-------2----------------
E------------------2x3----2-x5-------------

(Chorus)
E----2-----------------------------------------  play once
A----4x2------2--------------------------4----
D--------------4-x3----2------------------6x1-
G----------------------2-------2---------------
B----------------------2-------2---------------
E----------------------2x3----2-x5------------
Comments