Rookiez Is Punkd - Over The Rainbow Chords & Tabs

 

Over The Rainbow Chords & Tabs

Rookiez Is Punkd Chords & Tabs

Version: 1 Type: Tab 0 ratings
1 star 2 stars 3 stars 4 stars 5 stars
comments

Over The Rainbow Tab

   
-------------------------------------------------------------------------------
                Over The Rainbow - ROOKiEZ is PUNKE'D
-------------------------------------------------------------------------------
Tabbed by:DennisRockon

Really great song and i didn't see any tabs for it.I tried my best
with the fills but im kind of green on transcribing, but if you know the correct
way leave a correction and i will change it. Im also very unsure about the 
picking part in the bridge.

leave a comment or a like if you found this tab helpfull.


Tuning: Standard


  Intro
e|---------------------------------------------------------------------------|
B|---------------------------------------------------------------------------|
G|---------------------------------------------------------------------------|
D|-11-6--3--4--8--6--4--6----------------------------------------------------|
A|-11-6--3--4--8--6--4--6----------------------------------------------------|
E|-9--4--1--2--6--4--2--4----------------------------------------------------|

 Pre-Verse
e|---------------------------------------------------------------------------|
B|---------------------------------------------------------------------------|
G|---------------------------------------------------------------------------|
D|--8-6--4-11-6--8-6--4-11-6-------------------------------------------------|
A|--8-6--4-11-6--8-6--4-11-6-------------------------------------------------|
E|--6-4--2-9--4--6-4--2-9--4-------------------------------------------------|
 Verse 
  |pm.............|  
e|---------------------------------------------------------------------------|
B|--_____x2_______-----_______X4__________-----------------------------------|
G|---------------------------------------------------------------------------|
D|--4----6----8--------3----4----6----8--------------------------------------|
A|--4-x8-6-x8-8-x16----3-x8-4-x8-6-X8-8-x8-----------------------------------|
E|--2----4----6--------1----2----4----6--------------------------------------|

 These two fills comes in right before the chorus.
  
 Riff 0:55
e|---------------------------------------------------------------------------|
B|---------------------------------------------------------------------------|
G|--6-8-6-8-6-8-6-8-6-8-6-8-5-6-5-6-5-6-5-6-5-6------------------------------|
D|---------------------------------------------------------------------------|
A|---------------------------------------------------------------------------|
E|---------------------------------------------------------------------------|
fill 1 (1:48)
e|---------------------------------------------------------------------------|
B|-/14-----------------------------------------------------------------------|
G|-----13~-------------------------------------------------------------------|
D|---------------------------------------------------------------------------|
A|---------------------------------------------------------------------------|
E|---------------------------------------------------------------------------|
[ Tab from: http://www.guitartabs.cc/tabs/r/rookiez_is_punkd/over_the_rainbow_tab.html ]
 Riff 2 (1:25-1:37)
e|---------------------------------------------------------------------------|
B|---------------------------------------------------------------------------|
G|--3-3-5-5-6-6-8-8-10-10----------------------------------------------------|
D|---------------------------------------------------------------------------|
A|---------------------------------------------------------------------------|
E|---------------------------------------------------------------------------|
  Chorus
e|---------------------------------------------------------------------------|
B|---------------------------------------------------------------------------|
G|---------------------------------------------------------------------------|
D|-11----6----3----4----8----6----4----6-------------------------------------|
A|-11-x4-6-x4-3-x4-4-x4-8-x4-6-x4-4-x4-6-x4----------------------------------|
E|-9-----4----1----2----6----4----2----4-------------------------------------|
 Fill During Chorus (Really Unsure)
e|---------------------------9p6---------------------------------------------|
B|---------------------------------------------------------------------------|
G|-6-6-8p6-10p6-8p6--6-6-8p6----8p6------------------------------------------|
D|---------------------------------------------------------------------------|
A|---------------------------------------------------------------------------|
E|---------------------------------------------------------------------------|
 


 Bridge
e|---------------------------------------------------------------------------|
B|------------9--------------------------------------------------------------|
G|-------8---------8---------------------------------------------------------|
D|----11---11---11---11---6-6-6-6-6-6-6-11-11-11-11-11-11-11-----------------|
A|-11---------------------6-6-6-6-6-6-6-11-11-11-11-11-11-11-----------------|
E|------------------------4-4-4-4-4-4-4-9--9--9--9--9--9--9------------------|

when the song comes in (really unsure about the picking part)
e|---------------------------------------------------------------------------|
B|--6-------4----------------------------------------------------------------|
G|----6---6---6---6----------------------------------------------------------|
D|------6-------6---------6-6-6-6-6-6-6-11-11-11-11-11-11-11-----------------|
A|------------------------6-6-6-6-6-6-6-11-11-11-11-11-11-11-----------------|
E|------------------------4-4-4-4-4-4-4-9--9--9--9--9--9--9------------------|

 Solo
e|---------------------------------------------------------------------------|
B|---------------------------------------------------------------------------|
G|---------------------------------------------------------------------------|
D|-/13-11-13-11-13-11-13b15br13p11-----/13-11-13-11-13-11-13/15-13p11~-------|
A|---------------------------------11----------------------------------------|
E|---------------------------------------------------------------------------|

e|---------------------------------9---8---6--4------------------------------|
B|---------------------------------12b-11b-9b-7b-----------------------------|
G|-13-13-13\11-11-11\10\8-6/10-10----------------10-10-9--10-11-10-9--11-11--|
D|-----------------------------------------------11-11-11-11-11-11-11-11-11--|
A|-11-11-11\9--9--9 \8 \6-4/8--8---------------------------------------------|
E|---------------------------------------------------------------------------|
                                          |TR............|
e|---------------------------------------------------------------------------|
B|---------------------------------------------------------------------------|
G|-10-10-9--10-11-10-9--11-3~--3b--5b--7b--9b-10-11-10-13--------------------|
D|-11-11-11-11-11-11-11-11---------------------------------------------------|
A|---------------------------------------------------------------------------|
E|---------------------------------------------------------------------------|

Intro
Pre-verse
verse
verse+fill 1
verse+fill 2
Chorus
pre-verse
verse
verse+fill 1
verse+fill 2
Chorus
bridge
solo
Chorus



************************************

| /   slide up
| \   slide down
| h   hammer-on
| p   pull-off
| ~   vibrato
| +   harmonic
| x   Mute note
| b   Bend
| pb  Pre-bend
| br  Bend release
| pbr Pre-bend release
| brb Bend release bend
| TR  Tremolo Picking

************************************
Comments