Ronnie Montrose - Paper Money Chords & Tabs

 

Paper Money Chords & Tabs

Ronnie Montrose Chords & Tabs

Version: 1 Type: Bass Tab 0 ratings
1 star 2 stars 3 stars 4 stars 5 stars
comments

Paper Money Bass Tab

TITLE: Paper Money     by Ronnie Montrose
CD: Paper Money
TABBED by Rick Huff

  Intro: 4x
G----------------------|
D----5--------5--------|
A--------1-3-------3-1-|
E--3--3-3----3--3-3----|
[ Tab from: http://www.guitartabs.cc/tabs/r/ronnie_montrose/paper_money_btab.html ]
  Verse:    6x
G----------------------|----------------------|
D----5--------5--------|----------------------|
A--------1-3-------3-1-|-1--------------------|
E--3--3-3----3--3-3----|---1-3333333333333333-|

  Chorus: 3x
G-------------|---------|
D-------------|---------|
A-----33------|----33-5-|
E--11---33-33-|-11------|

 Verse: (as above)
 Chorus: (as above)
 Lead: (play as verse)
 Verse: (as above)
 Chorus: (as above)
 Outro: (same as intro)


questions:   hawkhuff@msn.com
Comments