Ronnie Montrose - One Thing On My Mind Chords & Tabs

 

One Thing On My Mind Chords & Tabs

Ronnie Montrose Chords & Tabs

Version: 1 Type: Bass Tab 0 ratings
1 star 2 stars 3 stars 4 stars 5 stars
comments

One Thing On My Mind Bass Tab

Title: One Thing On My Mind      by: Ronnie Montrose
CD Title:  Montrose
Tabbed by: Rick D. Huff

Intro:

Verse:    4x                     

G------------------------|-----------------------|
D---------------h35-553--|-------------\h35-553--|
A----------------------5-|-3-3-3-3-3-3---------5-|
E--3-3-3-3-3-3-3---------|-----------------------|

     3x

G------------------------|-
D---------------h35-553--|-
A----------------------5-|-
E--3-3-3-3-3-3-3---------|-

Chorus:

G--------------------------------h10-12-h10-12-h10-12-h10-12-10------|
D------2-5-5-2-2-----4---7-7-4-4--------------------------------12-5-|
A---3-3-3---------5-5-5----------------------------------------------|
E--------------------------------------------------------------------|

Verse:       4x

G--------|----------------------|------------------------|
D--5-3---|-------------h35-553--|--------------\h35-553--|
A-----5--|--------------------5-|--3-3-3-3-3-3---------5-|
E------3-|3-3-3-3-2-3-3---------|------------------------|

Bridge: 2x

G----------------------------------------------------|
D------------------------------------|--------5------|
A--0\5-5-5-5-5-5-5-5-5-5-4-4-3-3-2-2-|------57-7-----|
E------------------------------------|-3-\57----/753-|

G-----------------------------|---------------|
D------------------22-33-44-5-|--------5------|
A---33-00-11-22-33------------|------57-7-----|
E-----------------------------|-3-\57----/753-|

G--------------------------------h10-12-h10-12-h10-12-h10-12-10------|
D-----------------------22-33-44--------------------------------12-5-|
A---5-5-5-5-5-5-5-5-5-5----------------------------------------------|
E--------------------------------------------------------------------|

Lead: 2x 
[ Tab from: http://www.guitartabs.cc/tabs/r/ronnie_montrose/one_thing_on_my_mind_btab.html ]
G--------------------------------|------------------------|
D----------------------h35-553---|--------------h35-553---|
A---0-\25----------------------5-|-3-3-3-3-2-3-3--------5-|
E--------3-3-3-3-2-3-3-----------|------------------------|

    3x
G--------------------------------|
D----------------------h35-553---|
A---0-\25----------------------5-|
E--------3-3-3-3-2-3-3-----------|

G--------------------------------h10-12-h10-12-h10-12-h10-12-10------|
D------2-5-5-2-2-----4---7-7-4-4--------------------------------12-5-|
A---3-3-3---------5-5-5----------------------------------------------|
E--------------------------------------------------------------------|

Verse:    4x                     

G------------------------|-----------------------|
D---------------h35-553--|-------------\h35-553--|
A----------------------5-|-3-3-3-3-3-3---------5-|
E--3-3-3-3-3-3-3---------|-----------------------|

     3x

G------------------------|-
D---------------h35-553--|-
A----------------------5-|-
E--3-3-3-3-3-3-3---------|-

G--------------------------------h10-12-h10-12-h10-12-h10-12-10------|
D------2-5-5-2-2-----4---7-7-4-4--------------------------------12-5-|
A---3-3-3---------5-5-5----------------------------------------------|
E--------------------------------------------------------------------|


Bridge: 2x

G----------------------------------------------------|
D------------------------------------|--------5------|
A--0\5-5-5-5-5-5-5-5-5-5-4-4-3-3-2-2-|------57-7-----|
E------------------------------------|-3-\57----/753-|

G-----------------------------|---------------|
D------------------22-33-44-5-|--------5------|
A---33-00-11-22-33------------|------57-7-----|
E-----------------------------|-3-\57----/753-|

G--------------------------------------------------|
D-----------------------22-33-44--5----33-33-3-3-5-|
A---5-5-5-5-5-5-5-5-5-5------------1-3-------------|
E--------------------------------------------------|


Questions:  hawkhuff@msn.com
Comments