Romantics - Talking In Your Sleep Chords & Tabs

 

Talking In Your Sleep Chords & Tabs

Romantics Chords & Tabs

Version: 1 Type: Tab 0 ratings
1 star 2 stars 3 stars 4 stars 5 stars
comments

Talking In Your Sleep Tab

Author/Artist: The Romantics
Title: Talking in Your Sleep
Transcribed by: Chief Ungamunga
Email: twinfactor@mail.com

Originally arranged for one bass and one guitar, but
Now rearranged for one guitar. Because of this, the
TAB IS NOT ENTIRELY CORRECT, as at times it is 
too difficult to play both the bass and guitar lines.
-ENJOY!



Verse and Chorus

|-------5-5-|-------5-5-|-------3-3-----3-3-|-----5-5-|
|-------6-6-|-------6-6-|-------3-3-----5-5-|-----6-6-|
|-------7-7-|-------7-7-|-------3-3-----5-5-|-----7-7-|
|-----------|-----------|-------------------|---------|
|-0-3-5-----|-0-3-5-----|-0-5-------5-3-----|-7-5-----|
|-----------|-----------|-----3-------------|---------|
 i hear...                                   while you're talking...                        
                                                                            
Bridge
[ Tab from: http://www.guitartabs.cc/tabs/r/romantics/talking_in_your_sleep_tab.html ]
|--------------|----------------|-----------------|----------------------|
|--------------|----------------|-----------------|----------------------|
|-7------------|-5--------------|-----------------|-3------------------5-|
|-7------------|-5--------------|-5---------------|-3------------------5-|
|-5------------|-3--------------|-5---------------|-1------------------3-|
|--------------|----------------|-3---------------|----------------------|
you tell me...  you tell me...   you tell love...  and I know that...  


Second Guitar, Plays during chorus...
|----------------------|----------------------|
|----------------------|----------------------|
|-9-9-9-10-10-10-10-10-|-9-9-9-10-10-10-10-10-|
|----------------------|----------------------|
|-7-7-7-8--8--8--8--8--|-7-7-7-8--8--8--8--8--|
|----------------------|----------------------|


|---------------------|----------------------|
|---------------------|----------------------|
|-10-10-10-10-9-9-9-9-|-9-9-9-10-10-10-10-10-|
|---------------------|----------------------|
|-8--8--8--8--7-7-7-7-|-7-7-7-8--8--8--8--8--|
|---------------------|----------------------|
Comments