Rollins Band - Whats The Matter Man Chords & Tabs

 

Whats The Matter Man Chords & Tabs

Rollins Band Chords & Tabs

Version: 1 Type: Tab 0 ratings
1 star 2 stars 3 stars 4 stars 5 stars
comments

Whats The Matter Man Tab

   
Henry Rollin's Band
What's the Matter Man
(as heard on Tony Hawks Pro Skater 3)

Tuning- Eb Ab Db Gb Bb Eb
[ Tab from: http://www.guitartabs.cc/tabs/r/rollins_band/whats_the_matter_man_tab.html ]
|------------------------------------------------|
|------------------------------------------------|
|-9-9-9-9-9-9-9-9-9-9-9-12-12-12-12-7-7-7-7-7-7-7|
|-9-9-9-9-9-9-9-9-9-9-9-12-12-12-12-7-7-7-7-7-7-7|
|-7-7-0-7-0-7-0-7-0-7-0-10-0--10-0--5-5-5-5-5-5-5|
|------------------------------------------------|
 Play this riff only once the second time around its a little different...


|--------------------------------------|
|--------------------------------------|
|-9-9-9-9-9-9-9-9-9-9-9-12-12-13-13-14-|
|-9-9-9-9-9-9-9-9-9-9-9-12-12-13-13-14-|
|-7-7-0-7-0-7-0-7-0-7-0-10-0--11-0--12-|
|--------------------------------------|

This is basically the whole song...enjoy?
Comments