Rollins Band - Thursday Afternoon Chords & Tabs

 

Thursday Afternoon Chords & Tabs

Rollins Band Chords & Tabs

Version: 2 Type: Bass Tab 0 ratings
1 star 2 stars 3 stars 4 stars 5 stars
comments

Thursday Afternoon Bass Tab

Thursday Afternoon
Off The CD: Come In And Burn
Artists: Rollins Band
Music & Lyrics By: Henry Rollins, Melvin Gibbs, Chris Haskett, and Sim Cain
Tabbed By: Jeremy Daw

/ = slide up
	If you have any corrections, please contact me and tell me about them.  IÕm 16 and I have never taken a bass lession in my life.

Melvin Gibbs uses distortion on many of the riffs

riff1					
A-5--3--0---0--3--5-						
E-----------------------
B-----------------------			

riff1(variation)
A-6--3--0---0--3--5-
E-----------------------
B-----------------------
[ Tab from: http://www.guitartabs.cc/tabs/r/rollins_band/thursday_afternoon_btab_ver_2.html ]
riff2
D------------------------------10---------10-
A------------------5/12---5-----6-5-3-----
E-3/5--3/5/15-----------------------------
B--------------------------------------------

D--------------------------------7--------5---
A-------------------5/12---5-------5--------
E-3/5--3/5/15-----------------------------
B--------------------------------------------

riff3
A--5--3-----------5--3----------5--3---------
E---------6---2----------6----2---------6-----
B------------------------------------------------

riff4
E-3/5--3-3-5-5-5-5--5--8--8-8-8--5-3---------
B-------------------------------------------------5-3-1-

Comments