Rollins Band - Inhale Exhale Chords & Tabs

 

Inhale Exhale Chords & Tabs

Rollins Band Chords & Tabs

Version: 1 Type: Bass Tab 0 ratings
1 star 2 stars 3 stars 4 stars 5 stars
comments

Inhale Exhale Bass Tab

Inhale Exhale
Off The CD: Come In And Burn
Artists: Rollins Band
Music & Lyrics By: Henry Rollins, Melvin Gibbs, Chris Haskett, and Sim Cain
Tabbed By: Jeremy Daw

/ = slide up
	If you have any correction please contact me and tell me about them.  IÕm 16 and I have never taken a bass lession in my life.

Melvin Gibbs uses distortion on many of the riffs
[ Tab from: http://www.guitartabs.cc/tabs/r/rollins_band/inhale_exhale_btab.html ]
riff1
E-0-3-0-5--0-3-0-5--0-3-3-5-
B-----------------------------------

riff2
D-----2-----------------------
A---4-------2-------------4--
E---------------3--5-4-3----
B-2------1---------------------

chorus
E-5-5-0-------7-7-2-
B-----------------------

riff3
A-----------------------3------------------------4-----------4-------------
E-3-3-3-5--3-3-3-3---------------3-3-3-3---3-3-3-3----------------
B----------------------------------------------------------------------------


Comments