Rolling Stones - Wild Horses Chords & Tabs

 

Wild Horses Chords & Tabs

Rolling Stones Chords & Tabs

Version: 3 Type: Tab 0 ratings
1 star 2 stars 3 stars 4 stars 5 stars
comments

Wild Horses Tab

Wild Horses (guitar break)
From 'Sticky Fingers' 1971.
Tabbed and Submitted by HeathrowGiant

Tuning: DGDGBD 

D---------------------------------------------------14-----
B----------------------------------------------------------
G-12----12-12-12----12--17~~--17-----17-------10/12--------
D----14----------14--------------20b----20b----------------
G----------------------------------------------------------
D----------------------------------------------------------
[ Tab from: http://www.guitartabs.cc/tabs/r/rolling_stones/wild_horses_tab_ver_3.html ]
D-----------------------------14~~---14--------------------
B---------------------------------------13-----------------
G-17~----17--17----------------------------12--------------
D-----20--------15b15-13-----------------------------------
G------------------------17--------------------------------
D----------------------------------------------------------

D----------------------------------------------------------
B----------------------------15----------------------------
G-----14-----12-----------------14brb----------------------
D-14b----r14-----------------------------------------------
G----------------------------------------------------------
D----------------------------------------------------------

For rest of song see Harlan L. Thompson's transcripton.
Comments