Rolling Stones - Under My Thumb Chords & Tabs

 

Under My Thumb Chords & Tabs

Rolling Stones Chords & Tabs

Version: 3 Type: Tab 0 ratings
1 star 2 stars 3 stars 4 stars 5 stars
comments

Under My Thumb Tab

   
Hi this is my first tab so it wont be amazing.
Any suggestions/complaints/etc email me at big_bad_dan3@hotmail.com

Rolling Stones - Under My Thumb (Gimmer Shelter Version)

Tabbed by Dan Llewellyn

Intro: F#m E Esus? D Dsus?

F#m [9 9 11 11 10 9]
E   [7 7 9 9 9 7]
Esus? [7 7 9 9 10 7]
D   [5 5 7 7 7 5]
Dsus? [5 5 7 7 8 5]
A   [5 7 7 6 5 5]
B   [7 9 9 8 7 7]
[ Tab from: http://www.guitartabs.cc/tabs/r/rolling_stones/under_my_thumb_tab_ver_3.html ]
Verse: Just pick using the intro chords, but here is something along the lines of what i do.
  
  F#m           E   Esus? E       D  Dsus? D
|--9---------------------------|------------------------------|
|----10----10---9-----10-9-----|--7------8-7------------------|
|-------11--------9------------|----7----------------X2-------|
|-------------------9----------|------7-----------------------|
|------------------------------|------------------------------|
|------------------------------|------------------------------|

Chorus: A D B F#m D A

Solo: I'm yet to work this out, but i know that it is in the key of F#m.
i have managed to work out the first part. I shall hopefully soon work out the rest.

|------------------------------|------------------------------|
|------------------------------|------------------------------|
|-------14-16-16b-16b-16-14----|------------------------------|
|---/16---------------------14-|------------------------------|
|------------------------------|------------------------------|
|------------------------------|------------------------------|

Outro: D A   x15
Comments