Rolling Stones - Under My Thumb Chords & Tabs

 

Under My Thumb Chords & Tabs

Rolling Stones Chords & Tabs

Version: 1 Type: Tab 0 ratings
1 star 2 stars 3 stars 4 stars 5 stars
comments

Under My Thumb Tab

   
Rolling Stones - Under My Thumb
Tabbed By: 


I found the intro on many guitar sites so thank you to 
ever did that tab. I felt like making this tab because 
I felt like it and I like the song. So here we go!

Intro 2x

         F#m F#m             E E             D D             D D
----------------|----------------|--------------------------------
----------------|----------------|--------------------------------
----------------|----------------|------0--2------------0--2------
----------------|----------------|-0--4------0-0---0--4------0-0--
----0--2--4-----|-------0--2-----|--------------------------------
--2---------2-2-|--0--4------0-0-|--------------------------------
[ Tab from: http://www.guitartabs.cc/tabs/r/rolling_stones/under_my_thumb_tab.html ]
Verse 2x
   F#m       E             D
-22222222----------------------------
-22222222----------77777777-77777777-
-22222222-11111111-77777777-77777777-
-44444444-22222222-77777777-77777777-
----------22222222-------------------
----------00000000-------------------

Chorus 
    A                  D       B
-------------------------------------
-22222222-22222222-77777777-44444444-
-22222222-22222222-77777777-44444444-
-22222222-22222222-77777777-44444444-
-------------------------------------
-------------------------------------

   F#m     E    D      A       
-22222222-----------------------------
-22222222------7777-22222222-22222222-
-22222222-1111-7777-22222222-22222222-
-44444444-2222-7777-22222222-22222222-
----------2222------------------------
----------0000------------------------

GREAT SONG FROM THE GREATEST ROCK&ROLL BAND IN THE HISTORY OF THE WORLD!
Comments