Rolling Stones - Sympathy For The Devil Chords & Tabs

 

Sympathy For The Devil Chords & Tabs

Rolling Stones Chords & Tabs

Version: 1 Type: Tab 1 rating
1 star 2 stars 3 stars 4 stars 5 stars
comments

Sympathy For The Devil Tab

I got this out of A Tab book of the stones called "The London Years"
it's got all the greats (except for gimme shelter).  Anyway I love this song
but the posts up for it only have the chords, but not the bitchin' solo.
So I wanted to post it for you guys and give something back in return to this
site.  I'm gonna be posting all the songs from Jimi Hendrix's "Are you experienced"
because I got the double cassette video for it so they are completely
right so watch for them because they're comin soon.

Latea, Dave    

First solo

E-12-------------------------------------12-----------------------------------------------
B-------15(p)12-------------------------------15(p)12-------------------------------------
G-------------------14(b)(p)12-------------------------14(b)(p)12(v)----------------------
D-----------------------------------14(h)---------------------------------14(h)-----------
A-----------------------------------------------------------------------------------------
E-----------------------------------------------------------------------------------------

E------------------------------------------------------------------------------------------
B------------------------------------15(b)-------------------------------------------------
G-------12--14-14(b)----------12--14-------------------------------------------------------
D-14-----------------14--------------------------------------------------------------------
A------------------------------------------------------------------------------------------
E------------------------------------------------------------------------------------------

E----17(b)---17-----15(b)-------------------17(p)15------17-----17(p)15---17---15-----------
B---------------------------17-----------------------17-----------------------------17------
G-------------------------------------------------------------------------------------------
D-------------------------------------------------------------------------------------------
A-------------------------------------------------------------------------------------------
E-------------------------------------------------------------------------------------------

E------------15--17---17(b)17--15--17(p)15-----------17(b)17-17-15-17-15(b)-----------------
B--15(h)17---------------------------------17-----17-------------------------------17-------
G-------------------------------------------------------------------------------------------
D-------------------------------------------------------------------------------------------
A-------------------------------------------------------------------------------------------
E-------------------------------------------------------------------------------------------

E---------------------------------------------15-17-17(b)17---15-17--15---------------------
B-----17--------------17---17-17-17-------17------------------------------------------------
G-------------------------------------------------------------------------------------------
D-------------------------------------------------------------------------------------------
A-------------------------------------------------------------------------------------------
E-------------------------------------------------------------------------------------------

E-15(b)----------------15--17---15(h)17(p)15------------------------------------------------
B---------17--15--17--------------------------------17--17----------------------17----------
G-------------------------------------------------------------------------------------------
D-------------------------------------------------------------------------------------------
A-------------------------------------------------------------------------------------------
E-------------------------------------------------------------------------------------------

Second solo
[ Tab from: http://www.guitartabs.cc/tabs/r/rolling_stones/sympathy_for_the_devil_tab.html ]
E------------------------------------------------------------------------------------------------------
B------------------------------------------------------------------------------------------------------
G--14(b)14(p)12----------------------14(b)14(p)12------------------------------------------------------
D----------------14--------------------------------14--------------------------------------------------
A------------------------------------------------------------------------------------------------------
E------------------------------------------------------------------------------------------------------

E--12-----------------------------------------------------------------------------------------------------
B--12-----------------------------------------------------------------------------------------------------
G------14(b)14(p)12----------------12-14-14(b)-----14----12-14-12-----------------------------------------
D--------------------14--------14----------------------------------14-------------------------------------
A---------------------------------------------------------------------------------------------------------
E---------------------------------------------------------------------------------------------------------

E--12-----15------------------------------12-----12---------------------12-----12------------------------------
B------------15-------------------------------------15----------------------------15---------------------------
G------------------14(b)14(p)12----------------------------12--------------------------12(b)-------------------
D--------------------------------14------------------------------14---------------------------14---12----------
A--------------------------------------------------------------------------------------------------------------
E--------------------------------------------------------------------------------------------------------------

E----------------------12-------15(b)---------------------------------------------------------------------------------
B----------------------------12-------------------------------------------------15(b)(hold)---------------------------------
G--------------------------------------------------------------------------------------------------------------
D--14------------------------------------------------------------------------------------------------------------
A--------------------------------------------------------------------------------------------------------------
E---------------------------------------------------------------------------------------------------------------

E------------------------------17(b)---17---15-17---15(b)------------------------------------------------------------------------
B-----(15)-------(15)-----------------------------------------------------------------------------------------------------
G-----------------------------------------------------------------------------------------------------------------
D-----------------------------------------------------------------------------------------------------------------
A-----------------------------------------------------------------------------------------------------------------
E-----------------------------------------------------------------------------------------------------------------

E-------------------------------------------------------------------------------------------------------------------------
B-------------------------------------------------------------------------------------------------------------------------
G------------14(b)14(p)12----------------------------------12-14--14-12\-----------------------------------------------------------------------
D---------------------------14------------------------14-----------------------------------------------------------------------
A--------------------------------------------------------------------------------------------------------------------------
E--------------------------------------------------------------------------------------------------------------------------

  I didn't really put in any timing so listen to the song to get the timing.
  You also might want to add some scratchy slash sounds to fade out with or something.
  Contact me with suggestions or comments,or if and how you liked it at davidmo@nbnet.nb.ca
  Will someone please post a good tab or even just some guidelines for The "Canadian National Anthem"
  (O Canada) a la Hendrix (Hendrix style).
  Thanks
  Peace, Dave











Comments