Rolling Stones - Stoned Chords & Tabs

 

Stoned Chords & Tabs

Rolling Stones Chords & Tabs

Version: 2 Type: Tab 0 ratings
1 star 2 stars 3 stars 4 stars 5 stars
comments

Stoned Tab

   
                                     STONED
                        As recorded by The Rolling Stones
                         (Released as a Single in 1963)

Words and Music by Nanker Phelge
Transcribed by www.mikesguitarsite.co.uk

Gtr I (E A D G B E) - 'Brian Jones - Rhythm w/amp overdrive'
Gtr II (E A D G B E) - 'Keith Richards - Lead w/dist'

   Verses
    Q=118(8=s8)
   4/4
    Gtr I
||---------------|--------------|--------------|-------------|
||o--------------|--------------|--------------|-------------|
||---------------|--------------|--------------|-------------|
||-----5---------|----5---------|----5---------|----5--------|
||o------1-3--5--|------1-3--5--|------1-3--5--|------1-3--5-|
||--3------------|-3------------|-3------------|-3-----------|


|--------------|--------------|--------------|---------------|
|--------------|--------------|--------------|---------------|
|----5---------|----5---------|--------------|---------------|
|------1-3--5--|------1-3--5--|----5---------|----5----------|
|-3------------|-3------------|------1-3--5--|------1-3--5---|
|--------------|--------------|-3------------|-3-------------|


                                               1.,D.C.
                                       To Coda
|---------------|--------------|--------------|-----------||
|---------------|--------------|--------------|----------o||
|----7----------|----5---------|--------------|-----------||
|------3-5--/7--|------1-3--5--|----5---------|-3---------||
|-5-------------|-3------------|------1-3--5--|----------o||
|---------------|--------------|-3------------|-----------||


                 Guitar Solo
  2.
  Gtr II
|--------------||--------------------------|-------------------5-(5)--------|
|---------3----||-(3)----------------------|--------------------------------|
|---------5b7==||=(5)r-----------5b7==(5)r-|-5-3---3-5b7==(5)r------------3-|
|--------------||--------------------------|-----5----------------------5---|
|--------------||--------------------------|--------------------------------|
|--------------||--------------------------|--------------------------------|
|
| Gtr I
|--------------||--------------------------|--------------------------------|
|--------------||--------------------------|--------------------------------|
|--------------||--------------------------|--------------------------------|
|-3------------||-------5------------------|---------------5----------------|
|--------------||---------1-3--5-----------|-------------------1--3---5-----|
|--------------||--3-----------------------|-3------------------------------|


|-------------------------------------------|
|-------------------------------------------|
|-5b7==(5)r------5b7==(5)r-5b7==(5)r(5)-----|
|---------------------------------------5-5-|
|-------------------------------------------|
|-------------------------------------------|
|
|-------------------------------------------|
|-------------------------------------------|
|-------------------------------------------|
|------------5------------------------------|
|--------------1-------3----------------5---|
|-------3-----------------------------------|


|------------------|---8-----6-------(5)---3------|
|------------------|------------------------------|
|------------------|-9---9-7-----7-5-----5-----3--|
|-(5)--(5)---------|-------------------------5----|
|------------------|------------------------------|
|------------------|------------------------------|
|
|------------------|------------------------------|
|------------------|------------------------------|
|------------------|-------5----------------------|
|-------5----------|-----------1---3-------5------|
|----------1-3--5--|-3----------------------------|
|--3---------------|------------------------------|

[ Tab from: http://www.guitartabs.cc/tabs/r/rolling_stones/stoned_tab_ver_2.html ]
|-------------------------------------3-------|
|---------------------------------------------|
|-5b7==(5)r--5pb7r(5)-----3-5b7==(5)r---5-3---|
|---------------------5---------------------5-|
|---------------------------------------------|
|---------------------------------------------|
|
|---------------------------------------------|
|---------------------------------------------|
|------------5--------------------------------|
|-----------------------1---3-----------5-----|
|-------3-------------------------------------|
|---------------------------------------------|


|------------------------------------|-------------3-------6-8-6-|
|-------------------------6----------|-------------------8-------|
|-3-------------5b7==(5)r---5pb7r(5)-|-3-5b7==(5)r---------------|
|---5-(5)---(5)----------------------|---------------------------|
|------------------------------------|---------------------------|
|------------------------------------|---------------------------|
|
|------------------------------------|---------------------------|
|------------------------------------|---------------------------|
|------------------------------------|---------------------------|
|------5-----------------------------|-------------5-------------|
|---------1--3------------5----------|---------------1-3---5-----|
|-3----------------------------------|-3-------------------------|


                                                    ~
|-8b10==(8)r-8b10==(8)r-8b10==(8)r-8b10==(8)r---8-6---------|
|---------------------------------------------------8-------|
|-----------------------------------------------------------|
|---------------------------------------------------------5-|
|-----------------------------------------------------------|
|-----------------------------------------------------------|
|
|-----------------------------------------------------------|
|-----------------------------------------------------------|
|------------------------------7----------------------------|
|---------------------------------------------3-----5--/7---|
|--------5--------------------------------------------------|
|-----------------------------------------------------------|


|-------3--------------------------------|-------------------3---------------|
|-----3----------------------------------|-----------------------------------|
|-3-5-------5b7==(5)r-5pb7r(5)---3---3---|-------3-5b7==(5)r----5b7==(5)r(5)-|
|------------------------------5---5---5-|-(5)-5-----------------------------|
|----------------------------------------|-----------------------------------|
|----------------------------------------|-----------------------------------|
|
|----------------------------------------|-----------------------------------|
|----------------------------------------|-----------------------------------|
|-------5--------------------------------|-----------------------------------|
|---------1-----------3------------5-----|---------5-------------------------|
|-3--------------------------------------|---------------1---3--------5------|
|----------------------------------------|--3--------------------------------|


D.C. al Coda
           &
  Gtr I    Gtr I
|----------||----------------*|
|----------||----------------*|
|----------||----/4S2-(2)----*|
|-3--------||-3--/5S3-(3)----*|
|----------||----------------*|
|----------||----------------*|


Tablature Legend
----------------
 h   - hammer-on
 p   - pull-off
 b   - bend
 pb  - pre-bend
 r   - bend release (if no number after the r, then release immediately)
 /\  - slide into or out of (from/to "nowhere")
 s   - legato slide
 S   - shift slide
  - natural harmonic
[n]  - artificial harmonic
n(n) - tapped harmonic
 ~   - vibrato
 tr  - trill
 T   - tap
 TP  - trem. picking
 PM  - palm muting
\n/  - tremolo bar dip; n = amount to dip
 \n  - tremolo bar down
 n/  - tremolo bar up
/n\  - tremolo bar inverted dip
 =   - hold bend; also acts as connecting device for hammers/pulls
 <>  - volume swell (louder/softer)
 x   - on rhythm slash represents muted slash
 o   - on rhythm slash represents single note slash

Misc Legend
-----------
 |  - bar
||  - double bar
||o - repeat start
o|| - repeat end
*|  - double bar (ending)
 :  - bar (freetime)
 $  - Segno
 &  - Coda
Tempo markers -  = BPM(8/16=s8/s16), where s8 = swing 8ths, s16 = swing 16ths


***************************************************************************************
* Generated using Power Tab Editor by Brad Larsen - http://powertab.guitarnetwork.org *
***************************************************************************************
Comments