Rolling Stones - Stoned Chords & Tabs

 

Stoned Chords & Tabs

Rolling Stones Chords & Tabs

Version: 1 Type: Tab 0 ratings
1 star 2 stars 3 stars 4 stars 5 stars
comments

Stoned Tab

Instrumental Blues Shuffle; Stoned  (Standard tuning)
-------------------------------------|
-------------------------------------|
-------------------------------------|
---------5---------------------------|    X 4
---------------1------3---------5----|
--3----------------------------------|

-------------------------------------|
-------------------------------------|
----------5--------------------------|    x 2
---------------1-------3---------5---|
--3----------------------------------|
-------------------------------------|


-------------------------------------|
-------------------------------------|
-------------------------------------|    x 2
---------5---------------------------|
---------------1-------3---------5---|
--3----------------------------------|
[ Tab from: http://www.guitartabs.cc/tabs/r/rolling_stones/stoned_tab.html ]
-------------------------------------|
-------------------------------------|
-----------7-------------------------|    x1
------------------3-----5---/7-------|
--5----------------------------------|
-------------------------------------|

-------------------------------------|
-------------------------------------|
----------5--------------------------|
----------------1-------3----5-------|    x1
---3---------------------------------|
-------------------------------------|


------------------------------------|
------------------------------------|
------------------------------------|
---------5--------------------------|    x1
-------------------1-----3-----5----|
---3--------------------------------|

             Where  am  I    at?
------------------------------------|
------------------------------------|
------------------------------------|    x1
------------------------------------|
----3-------------------------------|
------------------------------------|


Enjoy!  Marshall149@hotmail.com
Comments