Rolling Stones - Star Star Chords & Tabs

 

Star Star Chords & Tabs

Rolling Stones Chords & Tabs

Version: 1 Type: Tab 0 ratings
1 star 2 stars 3 stars 4 stars 5 stars
comments

Star Star Tab

   
Star Star
Rolling Stones

Intro Riff   (the ^ represents a hammer on and the / is a slide up \ slide down)

E------------------|/12-/12-/12-|/12-------------------|
B------------12-14-|/12-/12-/12-|/12-15-14-12----------|
G------12^13-------|------------|-------------12^13----|
D------------------|------------|-------------------14\|
A------------------|------------|----------------------|
E------------------|------------|----------------------|


Fill Riffs in verse (each one is a little different so play around with it)
  
  (E)                       (B)                       (E)                        
E|------12-12-|------------|-------12-7-|-7----------|------12-12-|-------------|
B|------12-12-|------------|-------12-7-|-7----------|------12-12-|-------------|
G|------------|-14-12^13---|------------|---9-7-8----|------------|-14-12^13----|
D|------------|------------|------------|---------9--|------------|----------14-|
A|------------|------------|------------|------------|------------|-------------|
E|------------|------------|------------|------------|------------|-------------|


 (B)                       (A)                       (E)                               
|--------7-7-|-7----------|--5---------|--5---------|-12----------12-|-12-12-----------|
|--------7-7-|-7----------|--5---------|--5---------|-12----------12-|-12-12-----------|
|------------|---9-7^8----|----9-7^8---|----9-7^8---|----14-12^13----|------14-12^13---|
|------------|---------9--|----------9-|------------|----------------|---------------14|
|------------|------------|------------|------------|----------------|-----------------|
|------------|------------|------------|------------|----------------|-----------------|


 (B)                      (A)          (E)
|--------7-7-|-7---------|--5---------|-/12-12--12-|-12-------------|
|--------7-7-|-7---------|--5---------|-/12-12--12-|-12-------------|
|------------|---9-7^8---|----9-7-8---|------------|----14-12^13----|
|------------|---------9-|----------9-|------------|-------------14-|
|------------|-----------|------------|------------|----------------|
|------------|-----------|------------|------------|----------------|



[ Tab from: http://www.guitartabs.cc/tabs/r/rolling_stones/star_star_tab.html ]
[1st Verse]
E               B
Baby, baby I've been so sad since you've been gone
E                         B
Way back to New York City Where you do belong
A                                    E
Honey I miss your two tongue kissin, legs wrapped around me tight
B                                         A
If I ever get back to Fun City, girl, I'm gonna make ya scream all night

[2nd Verse]

Honey, honey, call me on the telephone
I know you're movin out to Hollywood with your can of tasty foam
All those beat up friends of mine got to get ya in their books
Lead guitars and movie stars get their toes beneath your hook

[Chorus]
                  B                       A                       B
Yeah and you were star fuckin star fuckin star fuckin star fuckin star
     A                       E                       B
Yeah star fuckin star fuckin star fuckin star fuckin star
A                       E                       B
Star fuckin star fuckin star fuckin star fuckin star

[3rd Verse]

Yeah I heard about your Polariods, now that's what I call obscene
Your tricks with fruit was kinda cute, I'll bet it keeps your pussy clean
Honey I miss your two tongue kissin, legs wrapped around me tight
If I ever get back to New York girl, I'm gonna make ya scream all night

[Chorus]

[Lead break] (same as a verse using the riffs instead of chording. Improvise a little!))

[4th Verse]

Yeah Ali McGraw got mad with you for givin head to Steve McQueen
Yeah you and me, we made a pretty pair fallin through the silver screen
Honey I'm open to anything, I don't know where to draw the line
Yeah I'm makin bets that you gonna get John Wayne before he dies

[Chorus]

[Outtro]

(from end of last chorus)
                         A                                               B
Oh yes you are! You were star fuckin star fuckin star fuckin star fuckin star
A                                               B
star fuckin star fuckin star fuckin star fuckin star

(repeat continuously to fade out)


Additional verse riffs

2nd verse during the line "All those beat up friends of mine"
(+ is half bend * is whole bend)

  (A)
E|-5------5-5----|---5-5---5--|
B|-5------5-5----|---5-5---5--|
G|---7+-7*----7+-|-7*----7*---|
D|---------------|------------|
A|---------------|------------|
E|---------------|------------|

3rd verse during the line "Honey I miss your two tongue kissin"

            (A)
|--------5-|---5-5---5-5---|-5-5---------|
|--------5-|---5-5---5-5---|-5-5---------|
|------7*--|-7*----7*----7*|-----9-7^8---|
|----------|---------------|-----------9-|
|----------|---------------|-------------|
|----------|---------------|-------------|
Comments