Rolling Stones - Slave Chords & Tabs

 

Slave Chords & Tabs

Rolling Stones Chords & Tabs

Version: 1 Type: Tab 0 ratings
1 star 2 stars 3 stars 4 stars 5 stars
comments

Slave Tab

Slave 'riff' off of Tatto You. 
    Standard Tuning 
[ Tab from: http://www.guitartabs.cc/tabs/r/rolling_stones/slave_tab.html ]
--------------------------------------------------------------------
--------------------------------------------------------------------
--------------------------------------------------------------------
--4---4------4----4-------4---4---4---4---4-------------------------
--0---2------0----2-------0---2---0---2---0--------0----2----2--2---
-----------------------------------------------2---0----0----0--0---



--------------------------------------------------------------------
--------------3-----------2-----------------------------------------
----2---------2-----------2-----------------------------------------
----2--h--4---------------2-----------------------------------------
--------------------0-----------------------------------------------
-----------------------------------0--------------------------------

Repeat and vary.   Marshall149@hotmail.com 
Comments