Rolling Stones - Satisfaction Chords & Tabs

 

Satisfaction Chords & Tabs

Rolling Stones Chords & Tabs

Version: 3 Type: Bass Tab 0 ratings
1 star 2 stars 3 stars 4 stars 5 stars
comments

Satisfaction Bass Tab

Song: Satisfaction (I Can't Get No) 
Band: Rolling Stones
Album: In Several Albums
Tabbed By: Rene - rene@brujula.cl

Intro and Chorus

---------------------
---4-6-7--7--7-6-4---
-7-----------------7-
---------------------
[ Tab from: http://www.guitartabs.cc/tabs/r/rolling_stones/satisfaction_btab_ver_3.html ]
I Can't Get No...
---------------------------------
-----------------7--7----7--7----
-7--7----7--7---------7-------7--
------7-------7------------------

Bridge

---------------------------------
-------------------------7-7-77--
-7--7----2--2----7--7------------
------7-------2-------7----------

This is the return to the verse. (No, no, no... He, he, hey...)
-----------  
-----------
---4-6-7-7-
-7---------

VIVA CHILE MIERDA!
Comments