Rolling Stones - Satisfaction Chords & Tabs

 

Satisfaction Chords & Tabs

Rolling Stones Chords & Tabs

Version: 2 Type: Bass Tab 0 ratings
1 star 2 stars 3 stars 4 stars 5 stars
comments

Satisfaction Bass Tab

#----------------------------------PLEASE NOTE---------------------------------#
#This file is the author's own work and represents their interpretation of the #
#song. You may only use this file for private study, scholarship, or research. #
#------------------------------------------------------------------------------##

Band : The Rolling Stones
Song : Satisfaction
Bassist : Bill Wyman
Tabbed by : Bryan Diaz

INTRO / MAIN RIFF
---------------------
---4-6-7--7--7-6-4---
-7-----------------7-
--------------------- x4
[ Tab from: http://www.guitartabs.cc/tabs/r/rolling_stones/satisfaction_btab_ver_2.html ]
CHORUS
"I can't get no.."
---------------------------------
-----------------7--7----7--7----
-7--7----7--7---------7-------7--
------7-------7------------------ x2

"'Cause i try.."
---------------------------------
-------------------------7-7-77--
-7--7----2--2----7--7------------
------7-------2-------7---------- x1

VERSE
"I can't get no!"
---------------------
---4-6-7--7--7-6-4---
-7-----------------7-
--------------------- x8

"Uh no no no..." (pause here)
"Hey hey hey"
---------------------
---4-6-7--7--7-6-4---
-7-----------------7-
--------------------- x2

(Order of Song)
Intro
Chorus
Verse
Chorus
Verse
Chorus
Verse
and fade out with the main riff while Mick's singing
Comments