Rolling Stones - Play With Fire Chords & Tabs

 

Play With Fire Chords & Tabs

Rolling Stones Chords & Tabs

Version: 1 Type: Tab 0 ratings
1 star 2 stars 3 stars 4 stars 5 stars
comments

Play With Fire Tab

   
TABBER: satanicmajesty@geocities.com

PLAY WITH FIRE

by The Rolling Stones 
(written by Nanker Phelge)
Album: Out Of Our Heads
(c)1965



Intro
 G        D        G        c         Em
|-------------2---|-------3-------0-|---------0-------|-0---------0-----|
|-------0-------3-|-----0-------1---|-------0---0-3---|---------0---0---|
|-----------2-----|-----------------|-----0-----------|-------0---------|
|-----0---0-------|---0-------2-----|---2-------------|-----------------|
|-----------------|---------3-------|-----------------|-----------------|
|-3---------------|-3---------------|-0---------------|-----0---------0-|


Verse
 Em        
|-----0---3---0---|-----0-------0---|-----0---3-----0-|
|-3-------------3-|-------0---0---0-|-3---------0-3---|
|-----------------|-----2-----------|-------0---------|
|-----2-------2---|-------------2---|-----2-------2---|
|-----------------|-----------------|-----------------|
|-0-------0-------|-0-------0-------|-0-------0-------|



|-----0---0---0---|-----0---3---0---|---0-------------|
|---0---0---0---0-|-3-------------3-|-----0-----0---0-|
|-----2-------2---|-------0---------|-------0---------|
|-----------------|-----2-------2---|-----2-----------|
|-----------------|-----------------|-------------2---|
|-0-------2-------|-0-------0-------|-0-------0-------|


 
  
|-----0---3-----0-|---------0-------|
|-3-----------3---|-------0---0-----|
|-----------0-----|-----------------|
|-----2-------2---|---2-------------|
|-----------------|-----2-----------|
|-0-------0-------|-0-----------0-2-|
          
                              But don't

Chorus
[ Tab from: http://www.guitartabs.cc/tabs/r/rolling_stones/play_with_fire_tab.html ]
  
|-------3-----2---|-------------0---|-----------0-----|-----------0-----|
|-----0---------3-|-----------------|---------0---3---|---0-----0---0---|
|---0-------2-----|---------------0-|-------0---------|-------0-------0-|
|---------0-------|-----------2-----|-----2-----------|-----2-----------|
|-----------------|-----2---3-------|---2-------------|-----------------|
|-3---------------|-3---------------|-0---------------|-0---------------|

 

Interlude

|-----------------|---------0-------|-------3-----3---|
|---0-------------|-------0---0-----|-----0---------2-|
|-------0---------|-----0-----------|---0-------2-----|
|-----2-----------|---2-------------|---------0-------|
|---------2-0-----|-----------------|-----------------|
|-0-----------3-2-|-0-----------0-0-|-3---------------|

|-----------------|-------0-3-0-----|-0-------0---3-0-|
|---------------1-|-----0-------3---|-----------0-----|
|-------------0---|---0-------------|-------0---------|
|---0-------2-----|-----------------|-----------------|
|-----0-2-3-------|-----------------|-----------------|
|-3---------------|-0---------------|-----0-----------|

Ending 

|---------------0-|-------3-----3---|---------------0-|-----------0-----|
|-------------0---|-----0---------2-|-------------1---|---------0-------|
|-----------0-----|---0-------2-----|-----------------|-------0---------|
|---------2-------|---------0-------|---0-------2-----|-----2-----------|
|-------2---------|-----------------|-----0-2-3-------|---2-------------|
|-0---0-----------|-3---------------|-3---------------|-0---------------|



-----------------------------
Order to play
Intro
Verse
Chorus
Verse
Chorus (don't play last bar)
Interlude
Verse
Chorus
Verse
Chorus
Ending
------------------------------


 


satanicmajesty@geocities.com
Comments