Rolling Stones - Paint It Black Chords & Tabs

 

Paint It Black Chords & Tabs

Rolling Stones Chords & Tabs

Version: 3 Type: Tab 0 ratings
1 star 2 stars 3 stars 4 stars 5 stars
comments

Paint It Black Tab

   
what I'm about to do is the verse and the chorus
I'm not sure about the intro though

Verse
Dminor                      A
E-------------------0-1-1h3-1------0----]
B-----------------3----------3-2-3---3p2]
G-2-2-2-2-2-2-2-2-----------------------]
D--0-0-0-0-0-0-0-0-0-0-0---0------------]
A-----------------------------0-0-0-0---]
E---------------------------------------]
[ Tab from: http://www.guitartabs.cc/tabs/r/rolling_stones/paint_it_black_tab_ver_3.html ]
Chorus                                 
 Dm,C,C,F,F,C,C,C,Dm.....
E-1-0-0-1-1-0-0-0-1-1-1-1-1-1-]
B-3-1-1-1-1-1-1-1-3-3-3-3-3-3-] 
G-2-0-0-2-2-0-0-0-2-2-2-2-2-2-]
D-0-2-2-3-3-2-2-2-0-0-0-0-0-0-]
A---3-3-----3-3-3-------------]
E---0-0-----------------------]
 
 Dm,C,C,F,F,C,C,C,Dm.....
E-1-0-0-1-1-0-0-0-1-1-1-1-1-1-0-1-3-1-0-1-]
B-3-1-1-1-1-1-1-1-3-3-3-3-3-3-3-3-3-3-3-3-]
G-2-0-0-2-2-0-0-0-2-2-2-2-2-2-2-2-2-2-2-2-]
D-0-2-2-3-3-2-2-2-0-0-0-0-0-0-0-0-0-0-0-0-]
A---3-3-----3-3-3-------------------------]   
E---0-0-----------------------------------]

 Dm,C,C,F,F,C,C,C,Dm.....      A5
E-1-0-0-1-1-0-0-0-1-1-1-1-1-1-5-5-5-5-5-]
B-3-1-1-1-1-1-1-1-3-3-3-3-3-3-2-2-2-2-2-]
G-2-0-0-2-2-0-0-0-2-2-2-2-2-2-2-2-2-2-2-]
D-0-2-2-3-3-2-2-2-0-0-0-0-0-0-2-2-2-2-2-]
A---3-3-0-0-3-3-3-----------------------] 
E---0-0-----0-0-0-----------------------]



well i guess about just piece it together and it will be good
Comments