Rolling Stones - Love In Vain Chords & Tabs

 

Love In Vain Chords & Tabs

Rolling Stones Chords & Tabs

Version: 2 Type: Tab 0 ratings
1 star 2 stars 3 stars 4 stars 5 stars
comments

Love In Vain Tab

   
##################################################################################
# This file is the author's own work and represents their interpretation of the  #
# song. You may only use this file for private study, scholarship, or research.  #
##################################################################################

LOVE IN VAIN

by The Rolling Stones
Written by Robert Johnson
Album: Get Yer Ya-Ya's Out


   INTRO:

  G                                    Em                  C
  ------------------------------------|-------3-----------------------------|
  ----------0------------------0------|-------------------------------------|
  -------0-----0------------0-----0---|---2p4----4h2-------------0h2-0-----0|
  -----0----------0-------0----------0|--------------5--2-----0h2-------0h2-|
  ------------------------------------|--------------------3----------------|
  3--3---------------3--3-------------|0------------------------------------|
  x         x        x         x       x         x         x         x
[ Tab from: http://www.guitartabs.cc/tabs/r/rolling_stones/love_in_vain_tab_ver_2.html ]
  G                  G7                 D                                   
  ----------3-----3--1--------1-----3|---------0h2----------------0h2-----||
  ----------0--------0--------0------|------3------3-----------3------3---||
  -------0--0--0-----0--------0------|---2------------2-----2------------2||
  -----------------------------------|0------------------0----------------||
  -----------------------------------|------------------------------------||
  3------------------3---------------|------------------------------------||
  x         x        x        x        x        x         x        x
                                                    ----------------- And I
  
  G                                   G
  ----------------------------------|------------------------------------|
  ---------0-----------------0------|----------0-----------------0-------|
  ------0-----0-----------0-----0---|-------0-----0-----------0-----0----|
  ---0-----------0-----0-----------0|----0-----------0-----0-----------0-|
  ----------------------------------|------------------------------------|
  3-----------------3---------------|-3-----------------3----------------|
  x        x        x        x        x        x        x        x
  followed her ---                    to   the station ----
  
   G7                                   G7
  ---0--1--1--0--0h1---0--0h1---0--0h1|---0--0h1---0--0h1---------1------|
  3--------3--------3--------3--------|3--------3--------------------3---|
  0--------0--------0--------0--------|0--------0--------------0---------|
  ------------------------------------|---------------------0------------|
  ------------------------------------|---------------------------------2|
  3-----------------3-----------------|3-----------------3---------------|
  x        x        x        x         x        x        x        x
  --------  with her suitcase   in my  hand ------                  yeah I
  
  C                                    D
  ------------------------------------|---------0h2----------------0h2-----|
  ---------1-----------------1--------|------3------3-----------3------3---|
  ------0-----0-----------0--------0h2|---2------------2-----2-------------|
  ---2-----------2-----2--------0h2---|0-----------------------------------|
  3-----------------3-----------------|------------------------------------|
  ------------------------------------|-------------------2---------------2|
  x        x        x        x         x        x         x        x         
  followed her to the station  ----------------- with her suitcase ---in my
  
  G                 D                  G
  ------------3--------------0h2------|------------3-----------------------|
  ---------0-----0--------3------3----|------0--1-----1--0-----------------|
  ------0--------------2--------------|---0-----------------0-------------0|
  ---0--------------------------------|------------------------0------0h2--|
  ------------------------------------|---------------------------0h2------|
  3-----------------2---------------2-|3-----------------------------------|
  x        x        x        x         x        x        x        x
  hand ----------                                              you know it's

  D                                    Em                C
  ---------0h2----------------0h2-----|------------0-----------------------|
  ------3------3-----------3------3---|---------0--------------------------|
  ---2------------2-----2------------2|------0-----------------0h2-0------0|
  0------------------0----------------|---2-----------------0h2-------0h2--|
  ------------------------------------|---------------2--3-----------------|
  ------------------------------------|0-----------------------------------|
  x        x         x        x        x        x        x         x
  hard to tell,it's hard to tell ---------  when all --------- your love is
  
  G                 G7               D
  ---------3-----3--1--------1-----3|---------0h2----------------0h2------||
  ---------0--------0--------0------|------3------3-----------3------3----||
  ------0--0--0-----0--------0------|---2------------2-----2------------2-||
  ----------------------------------|0------------------0-----------------||
  ----------------------------------|-------------------------------------||
  3-----------------3---------------|-------------------------------------||
  x        x        x        x        x        x         x        x
  vain --- .



NOTES:

   It's 12 bars blues in G with 4 beats per measure (4/4).
   Tempo: slow (x below the strings indicate the beats).
   The feeling is 3 notes per beat.


Email:fcha@club-internet.fr

  
Comments