Rolling Stones - Jumpin Jack Flash Chords & Tabs

 

Jumpin Jack Flash Chords & Tabs

Rolling Stones Chords & Tabs

Version: 3 Type: Tab 0 ratings
1 star 2 stars 3 stars 4 stars 5 stars
comments

Jumpin Jack Flash Tab

   
<h5>

jumping jack flash

chords
B       E       A       D
7       7       5       10
7       9       5       10
8       9       6       11
9       9       7       12
9       7       7       12
7       #       5       10

intro
riff 1
 B          E    A
-7--7--7-7--7-7--5--5-5--7-7-|
-7--7--7-7--5-5--2--2-2--7-7-|
-4--4--4-4--4-4--2--2-2--4-4-|
-4--4--4-4--6-6--2--2-2--4-4-|
-----------------------------|
-----------------------------|

riff 2
B
-----------------------|
-4-4-------------------|
-4-4-----2-----2-----2-|
-4-4-2-4---2-4---2-4---|
-2-2-------------------|
-----------------------|

verses
         B(riff 2)
(1)i was born in a  cross   fire hurricane
(2)i was raised by a toothless bearded hag
(3)i was drowned i was washed up left for dead
(4)and i frowned at the crumbs of a crust of bread
[ Tab from: http://www.guitartabs.cc/tabs/r/rolling_stones/jumpin_jack_flash_tab_ver_3.html ]
and i howled at my ma in the driving rain
i was schooled with a strap right across my back
i fell down to my feet and i saw they bleed
i was crowned with a spike right through my head

chorus
         D           A          E                    B
but its all          right    now in fact its a gas
         D           A          E                    B
but its all          right    jumpin jack flash its a

gas gas gas

bridge
riff 3
B              E       A
-2-----2-------4-2---0---2-4---|
---0-----0---0-----0---------0-|
-----4-----4-----------4-------|
-------------------------------|
-------------------------------|
-------------------------------|

outro
riff 4
B              E             A
---------------12-12-------------------|
---------------12----15-14-12-14-12-12-|
---------------13----------------------|
---------------14----------------------|
---------------------------------------|
---------------------------------------|


Comments