Rolling Stones - Jumpin Jack Flash Chords & Tabs

 

Jumpin Jack Flash Chords & Tabs

Rolling Stones Chords & Tabs

Version: 1 Type: Tab 3 ratings
1 star 2 stars 3 stars 4 stars 5 stars
comments

Jumpin Jack Flash Tab

   



                  
         #----------------------------------PLEASE NOTE--------------------------------#
         #This file is the author\'s own work and represents their interpretation of the#
         #song. You may only use this file for private study, scholarship, or research.#
         #-----------------------------------------------------------------------------#


          Jumpin\' Jack Flash                § Mick §            (This is a STAGE VERSION
      by The Rolling Stones              § Stevenson §          Not The Original.)

    (OPEN G TUNING)
    (CAPO 4th FRET)

      
      Intro:/ Verse:


      D--------------------------------------------------------------------------
      B--------------------------------------------------------------------------
      G---------------3--------3----3-3------------------------------------------
      D--0-0--0-------3--------3----3-3------------------------------------------
      G--0-0--0--3--5-----3--5---------------------------------------------------
      D--------------------------------------------------------------------------




      Chorus:


      

(Strums)          /     /   /    /         / / / / / /      / / / /       / / / / 
      D-----------------------------------------------------------------------------
      B----------3---------------------10------------------5--------------0---------
      G-0--0-----3---------------------10------------------5--------------0---------
      D-0--0-----3---------------------10------------------5--------------0---------
      G-0--0-----3---------------------10------------------5--------------0---------
      D-----------------------------------------------------------------------------
[ Tab from: http://www.guitartabs.cc/tabs/r/rolling_stones/jumpin_jack_flash_tab.html ]


     
                    /     /   /    /         / / / / / /      / / / /       / / / / 
      D----------------------------------------------------------------------------- (Strum this
      B----------3---------------------10------------------5--------------0---------  part 4x 
      G-0--0-----3---------------------10------------------5--------------0---------  apart)
      D-0--0-----3---------------------10------------------5--------------0---------
      G-0--0-----3---------------------10------------------5--------------0---------
      D-----------------------------------------------------------------------------




       3rd Part:

   

           / / / / / / /     / / / /      / / / /       / / / /       / / / / / /
      D--------------------------------------------------------------------------
      B---0---------------5------------3-------------2-------------0-------------
      G---0---------------5------------3-------------2-------------0-------------
      D---0---------------5------------3-------------2-------------0-------------
      G---0---------------5------------3-------------2-------------0-------------
      D--------------------------------------------------------------------------



        Note: I\'d like To Make a Correction on The \"WANNA HOLD YOU TABS\" The Note Part
    E A D G B E ..Should Be D G D G B E.....Email if you Want Open G Versions or Kieth Versions
 of songs Of The Rolling Stones...Honkey Tonk Women...Before They Make Me Run...Low Down...and more.
 I might have some Rare Ones..once in a while...Just Email to Check..or You Want Tabs.

        Pidley64@hotmail.com
Comments