Rolling Stones - I Cant Get No Satisfaction Chords & Tabs

 

I Cant Get No Satisfaction Chords & Tabs

Rolling Stones Chords & Tabs

Version: 1 Type: Tab 0 ratings
1 star 2 stars 3 stars 4 stars 5 stars
comments

I Cant Get No Satisfaction Tab

---------------------------------------------------------------------------
           (I Can't Get No) Satisfaction - Rolling Stones
---------------------------------------------------------------------------
Tabbed by:Evil_Empire24/7
Email:Black_Sunday911@hotmail.com

Tuning:EADGBe


Gtr 1/Use (Fuzz)
Gtr 2/Use (Heavy Reverb)

                              (Intro)
  Gtr1
e|---------------------------------------------------------|
B|---------------------------------------------------------|
G|---------------------------------------------------------| 
D|---------------------------------------------------------|  x4
A|--2-2--4-4-5--55-5/4--44--4p2----------------------------|
E|---------------------------------------------------------|


  Gtr2       0:17
e|---------------------------------------------------------|
B|---------------------------------------------------------|
G|---------------------------------------------------------|
D|---------------------------------------------------------|
A|-2---7/4-------------------------------------------------|
E|----------7/5----5-5-------------------------------------|

  Gtr2
e|---------------------------------------------------------|
B|---------------------------------------------------------|
G|--------------------------7-7-7-7----7---7---------------|
D|----------------------9---9-9-9-9----9---9---------------|
A|--------4-4-7-4---7---7---7-7-7-7----7---7----4--4h7--4--|
E|-5---5--------------------------------------7-----------7|
[ Tab from: http://www.guitartabs.cc/tabs/r/rolling_stones/i_cant_get_no_satisfaction_tab.html ]
e|---------------------------------------------------------|
B|-----------------------------3---2-3---------------------|
G|---------------2-------------1---1-1---------------------|
D|----2-2-2---2--2----2--------0---0-0--------2-4p2-2-4----|
A|-0--0-0-0-4----0-0-4-------------------2-2-4-----4-------|
E|-------------------------0-0-----------------------------|
    Pm/////////
   
  Gtr1
e|---------------------------------------------------------|
B|-----3-0-3-----------------------------------------------|
G|-----1-1-1-----------------------------------------------|
D|-----0-0-0----------2-4p2-2------------------------------|
A|---------------0-0-4-----4----2-4-5-55-5/4-44-4p2--------|
E|-0-0-----------------------------------------------------|

  Gtr1
e|---------------------------------------------------------|
B|---------------------------------------------------------|
G|---------------------------------------------------------|
D|---------------------------------------------------------| x5
A|-2-2-2-4-5-55-5/4-44-4p2---------------------------------|
E|---------------------------------------------------------|

  Gtr1                              (Outro)
e|---------------------------------------------------------|
B|---------------------------------------------------------|
G|---------------------------------------------------------|
D|---------------------------------------------------------|
A|-5~~~--5/4-44-4p2--2-2-2-4-5-55-5/4-44-4p2---------------|
E|---------------------------------------------------------|


Enjoy !!!!!! Full Tab For Satisfaction. 
Comments