Rolling Stones - Honky Tonk Women Chords & Tabs

 

Honky Tonk Women Chords & Tabs

Rolling Stones Chords & Tabs

Version: 1 Type: Bass Tab 0 ratings
1 star 2 stars 3 stars 4 stars 5 stars
comments

Honky Tonk Women Bass Tab

Artist:Rolling Stones
Title :Honky Tonk Women
Tuning:EADG
Tabber:Justin van Uum

The only difficult about this song is the timing.

1st chorus:
G--------------------------------------------------------------------------|
D-------------------------------------/5--5--------------------------------|
A-----------5---5-------------------------------5------5-------------------|
E-2-3---3--5------0--33----0-3---3--5--------0------------0-3-----3--0-3--3|
[ Tab from: http://www.guitartabs.cc/tabs/r/rolling_stones/honky_tonk_women_btab.html ]
2nd Chorus
G-----------------------------------------------------------------|
D--5----------------------5----------5----------------5-----------|
A----------------5-----5-----------------------5---5--------------|
E-----3--3--5---------------3--3---3---3--3--5-----------3---3---3|

Guitar Solo:
G------------------------------------------------------|
D---5---5----5-5---5-----------------------------------|
A-------------------------x-3-3-3-3-3--2--3-3----------|
E-3--3---3-3----3---3--0----------------------0-1-2-3--|

G----------------------------------5--7------------------------------5--|
D---5---5--------7-----7-----4-5-7----------4-5-7---5----5------5--5----|
A-----------------------5--5------------5-5-----------------------------|
E-3--3---3--5-----5-5-----------------------------3----3---3-33---3-----|

G--------------------------------|
D-------------------------5------|
A-3--3-3--2--3-------------------|
E--------------0-1-2-3--3---3--3-|
Comments