Rolling Stones - Beast Of Burden Chords & Tabs

 

Beast Of Burden Chords & Tabs

Rolling Stones Chords & Tabs

Version: 3 Type: Tab 0 ratings
1 star 2 stars 3 stars 4 stars 5 stars
comments

Beast Of Burden Tab

   
-----------------------------------------------------------------------------
			     Beast of Burden - Rolling Stones
-----------------------------------------------------------------------------
Tabbed by:Spence
Email:delajeep@hotmail.com
Tuning:Standard
[ Tab from: http://www.guitartabs.cc/tabs/r/rolling_stones/beast_of_burden_tab_ver_3.html ]
Intro/Verse
     E     B      C#min   A
e|----------------------------------------------------------------------------|
B|---9------------4^5---------------------------------------------------------|
G|---9-----8------4-x-x-x-6-6--6(^5)------------------------------------------|
D|---9-----x------4^6-x-x-x-x--x----------------------------------------------|
A|-7---7---9----4-----x-x-7-7--7(^5)------------------------------------------|
E|-------7----7-------x-x-5-5--5----------------------------------------------|
  Listen to the song to get the rythym down.  You'll find this song feels very natural 
easy to play, the lyrics will want to jump right out of your mouth!!
When the "Am I tough enough?" part comes around, just fiddle with the E chord.  I do a 
snap of the chord, and then do a little pull off, like this:
  Am I tough enough?       Hoo...
e|----------------------------------------------------------------------------|
B|---------9---------9--------------------------------------------------------|
G|---------x---------x----------9---------------------------------------------|
D|---------9---------9-----9----9---------------------------------------------|
A|---------7--------7--7--11^9--11--------------------------------------------|
E|----------------------------------------------------------------------------|
Hopefully this'll show y'all a little insight into performing.  I know a lot of you out 
want to play and sing, but just don't have the confidence in your voice.  Truthfully, I
like a drugged up tone deaf Aaron Neville, so figure that one out.  I'm just happy
performing, so I don't give a crap what anyone thinks.  Just be happy you can make
music!!!!!!


| /  slide up
| \  slide down
| h  hammer-on
| p  pull-off
| ~  vibrato
| +  harmonic
| x  Mute note
===============================================================================
Comments