Rolling Stones - Beast Of Burden (tab) Chords & Tabs

 

Beast Of Burden (tab) Chords & Tabs

Rolling Stones Chords & Tabs

Version: 1 Type: Tab 2 ratings
1 star 2 stars 3 stars 4 stars 5 stars
comments

Beast Of Burden (tab) Tab

   
 Rolling Stone`s
Beast of burden
 
 Intro
  Moderate Rock Q=100
         B   E        B  C#m                     B
 4/4
  Gtr II
|----------|----------------|----------------------|
|----------|----------------|----------------------|
|----------|----------------|----------------------|
|----------|----------------|----------------------|
|----------|----------------|----------------------|
|----------|----------------|----------------------|
|
| Gtr I
|----------|----------------|----------------------|
|--------7h|=9--9-9-x-7---9-|--(9)-----------10--7h|
|--------8h|=9--9-9-x-8---9-|--(9)--9-x-9-----9--8h|
|--------x-|----9-9-x-9--11-|-(11)-11-x-9h11-----9-|
|--------9-|----------------|----------------------|
|--------7-|----------------|----------------------|


  E      B  C#m              A       B
|--------------|---------------------9----|
|--------------|--------------------------|
|--------------|-------------------9------|
|--------------|--------------9h11--------|
|--------------|--------------------------|
|--------------|--------------------------|
|
|--------------|--------------------------|
|-9---9--7---9-|--(9)--------10------7h===|
|-9---9--8---9-|--(9)---9-----9------8h===|
|-----9--9--11-|-(11)---9h11---------9----|
|--------------|--------------------------|
|--------------|--------------------------|


  E               C#m              A          B
|--------------------|---------------------------|
|-10-9-(9)-----------|------------------------10-|
|---------------9----|-------------------9-------|
|------------------9h|==11----------9h11---11----|
|--------------------|---------------------------|
|--------------------|---------------------------|
|
|--------------------|---------------------------|
|--9-------9--7----9-|--(9)--------10----------7h|
|--9-------9--8----9-|--(9)---9-----9----------8h|
|----------9--9---11-|-(11)---9h11-------------9-|
|--------------------|---------------------------|
|--------------------|---------------------------|


  E         C#m                     A     B
|--------------|------------------------------||
|-9------------|--12---9h10p9----------10p====||
|-9------------|------------------------9-----||
|-9------------|---------------9h11----11p====||
|--------------|------------------------------||
|--------------|------------------------------||
|
|--------------|------------------------------||
|-9---9--7---9-|--(9)---------------10----7h==||
|-9---9--8---9-|--(9)-------9--------9----8h==||
|-----9--9--11-|-(11)-------9h11----------9---||
|--------------|------------------------------||
|--------------|------------------------------||


 1st Verse
  E      B    C#m                  A       B
|----------------|-----------------------------|
|-9--------------|--------------------10p0-----|
|----------------|-------------------------9-9-|
|-9---------9----|--11p==9-11-(11)-------------|
|--------11------|-----------------------------|
|----------------|-----------------------------|
|
|----------------|-----------------------------|
|-9---9---7----9-|--(9)------------10------7h==|
|-9---9---8----9-|--(9)-----9-------9------8h==|
|-----9---9---11-|-(11)-----9h=11----------9---|
|----------------|-----------------------------|
|----------------|-----------------------------|


  E                     C#m                    A   B
|----------------------------|----------------------9--|
|----------------------------|---------------------10--|
|-(9)--------11b12r(11)----9h|==11---11p9-9------------|
|----------------------------|-------------------------|
|----------------------------|-------------------------|
|----------------------------|-------------------------|
|
|----------------------------|-------------------------|
|--9----9--7-------------9---|--(9)------------10---7h=|
|--9----9--8-------------9---|--(9)-------9-----9---8h=|
|-------9--9------------11---|-(11)-------9h11------9--|
|----------------------------|-------------------------|
|----------------------------|-------------------------|


  E            B  C#m                      A     B
|--------------------|-----------------------------|
|-----9-9------9-----|------9h10p9-----------------|
|---9-------11-------|-------------9h11p=9-------9-|
|--------------------|----------------------9h11---|
|--------------------|-----------------------------|
|--------------------|-----------------------------|
|
|--------------------|-----------------------------|
|-9-------9----7---9-|--(9)----------------10----7h|
|-9-------9----8---9-|--(9)--------9--------9----8h|
|---------9----9--11-|-(11)--------9h===11-------9-|
|--------------------|-----------------------------|
|--------------------|-----------------------------|


  E         B  C#m                   A      B
|------x----------|-----------------------------||
|------x----------|--12--9h10p9-----------------||
|-(9)-------------|---9------------9-----9\-----||
|-----------------|-------------9-------11\-----||
|-----------------|-----------------------------||
|-----------------|-----------------------------||
|
|-----------------|-----------------------------||
|--9-----9--7---9-|--(9)-------------10-----7h==||
|--9-----9--8---9-|--(9)--------9-----9-----8h==||
|--------9--9--11-|-(11)--------9h11--------9---||
|-----------------|-----------------------------||
|-----------------|-----------------------------||


 2nd Verse
  E        B    C#m                           A   B
|----12------9--------|-----------------------------|
|-----x------------12-|--------10---9---------------|
|-----9---------------|-------------9---9-(9)-------|
|---------------------|------9----------9-11------x-|
|---------------------|-----------------------------|
|---------------------|-----------------------------|
|
|---------------------|-----------------------------|
|-9-----9--7-----9----|--(9)------------------10--7h|
|-9-----9--8-----9----|--(9)----------9--------9--8h|
|-------9--9----11----|-(11)----------9h==11------9-|
|---------------------|-----------------------------|
|---------------------|-----------------------------|


  E           B   C#m                    A    B
|--------------------|------------------------------|
|--------------------|------9-12p10-9---------10p9--|
|-x-------------9----|----------------------9-------|
|-x--------9----9----|----------------11---------9--|
|---x-9h11-----------|------------------------------|
|--------------------|------------------------------|
|
|--------------------|------------------------------|
|-9--------9--7----9-|--(9)--------------10----7h===|
|-9--------9--8----9-|--(9)---------9-----9----8h===|
|----------9--9---11-|-(11)---------9h11-------9----|
|--------------------|------------------------------|
|--------------------|------------------------------|


  E         B   C#m                            A   B
|------------------|--12-----------------------------|
|-(9)--x------x----|---------------------10-10-------|
|------x------x----|------11pb13r(11)-9---9--9-------|
|-(9)--x------x--x-|---------------------11-11-------|
|------------------|---------------------------------|
|------------------|---------------------------------|
|
|------------------|---------------------------------|
|--9-----9--7----9-|--(9)----------------------10--7h|
|--9-----9--8----9-|--(9)-----------------9-----9--8h|
|--------9--9---11-|-(11)-----------------9h11-----9-|
|------------------|---------------------------------|
|------------------|---------------------------------|


  E        B  C#m               A
|----12----------|---x--12-12-----12-12-12---||
|--------------9-|---x--12-12-----12-14-14---||
|----------9-----|---------------------------||
|----------------|---------------------------||
|----------------|---------------------------||
|----------------|---------------------------||
|
|----------------|-------------------------0-||
|-9-----9--7---9-|--(9)--9-----------------0-||
|-9-----9--8---9-|--(9)--9----0-2------------||
|-------9--9--11-|-(11)-11----0-2------------||
|----------------|---------------------------||
|----------------|---------------------------||


 Chorus
  A                         E                     A
|-------------------------|---------------------|---------------------------|
|---------------------10--|---------------------|---------------------------|
|--------9-11b13r(11)-----|-11b13--9---9-(9)----|-----11b13---11b13r(11)-9--|
|-------------------------|---------------------|---9-----------------------|
|-----12------------------|---------------------|---------------------------|
|-------------------------|---------------------|---------------------------|
|
|-------------------------|----------0---(0)----|---------------------------|
|--------2-(2)------------|-^0-------0---(0)----|-----------2-(2)-----------|
|------2------------------|-^1------------------|-2---------2-(2)-----------|
|---2---------------------|-^2------------------|-2-------------------------|
|-0-----------------------|-^2------------------|-0-------------------------|
|-------------------------|-^0------------------|---------------------------|


  E                        B
|------------------------|----------------7h9--||
|----------12-(12)-12-9--|-7--------7----------||
|-11---9-9---------------|-------8-------------||
|------------------------|-----9---------------||
|------------------------|---------------------||
|------------------------|---------------------||
|
|--0--------0--(0)-------|---7-----------------||
|----0---0---------------|---7--------------7h=||
|------1-----------------|-8----------------8h=||
|------------------------|-------9-(9)-9s11-9--||
|------------------------|------------------x--||
|------------------------|-----7------------0--||


 3rd Verse
  E             B    C#m
|-----------------------|
|-----------------------|
|-----------9-9-(9)-----|
|---------9---9h11------|
|----9s11---------------|
|-----------------------|
|
|-----------------------|
|-9-------9------7----9-|
|-9-------9------8----9-|
|---------9------9---11-|
|-----------------------|
|-----------------------|


                      A        B   E       B      C#m
|--------------------------------|-----------------------|
|--------------------------------|----x------------------|
|-----------9--9----9-(9)--------|----x------------------|
|-----------9-11----9h11--9------|----x------------9-----|
|------9h11-----------------11s9p|=7---------9s11----11--|
|--------------------------------|-----------------------|
|
|--------------------------------|-----------------------|
|--(9)----------------10-------7h|=9----9--7-------9-----|
|--(9)---------9-------9-------8h|=9----9--8-------9-----|
|-(11)---------9h11------------9-|------9--9------11-----|
|--------------------------------|-----------------------|
|--------------------------------|-----------------------|


                        A         B
        ~~        ~~~~~~
|-----------------------------------|
|-----------------------------------|
|---------9----11-9-(9)---------9---|
|---9h=11---11-------------9h11-----|
|-----------------------------------|
|-----------------------------------|
|
|-----------------------------------|
|--(9)------------------10--------7h|
|--(9)----------9--------9--------8h|
|-(11)----------9h==11------------9-|
|-----------------------------------|
|-----------------------------------|


  E            B        C#m              A          B
|--------------------------|-----------------------------|
|----9h10p9------9h10p9h10-|----------10-10s12-(12)-10p==|
|----9-----------9---------|-----------------------------|
|----9h11p9------9h11p9h11-|-----------------------------|
|--------------------------|-----------------------------|
|--------------------------|-----------------------------|
|
|--------------------------|-----------------------------|
|-9---------9--7---------9-|--(9)--------10----------7h==|
|-9---------9--8---------9-|--(9)---9-----9----------8h==|
|-----------9--9--------11-|-(11)---9h11-------------9---|
|--------------------------|-----------------------------|
|--------------------------|-----------------------------|


  E        B  C#m                            A       B
                                                ~~
|----x--------------|---9-----12-(12)b12.5-----12-12---||
|-9--x---------9h12-|------12--------------------------||
|--------x-9--------|----------------------------------||
|-------------------|----------------------------------||
|-------------------|----------------------------------||
|-------------------|----------------------------------||
|
|-------------------|--------------------------------0-||
|-9----9---7---9----|--(9)-----9---------------------0-||
|-9----9---8---9----|--(9)-----9-----------0-2---------||
|------9---9--11----|-(11)----11-----------0-2---------||
|-------------------|----------------------------------||
|-------------------|----------------------------------||


 Chorus
  A
|-------------------------|
|----------10-(10)-----10-|
|-----9-----9--(9)------9-|
|-----9h11----------------|
|------------------12-----|
|-------------------------|
|
|-------------------------|
|-----------2--(2)--------|
|-----2-------------------|
|---2---------------------|
|-0-----------------------|
|-------------------------|


  E                  A                           E
|-------12-(12)----|---------------------------|---------------------|
|-----9-12-(12)----|----10---------------------|------------------9--|
|-----9------------|-------9-11b13r(11)-9----9-|-11-----11-9-(9)-----|
|------------------|----------------------11---|---------------------|
|------------------|---------------------------|---------------------|
|------------------|---------------------------|---------------------|
|
|--------0--(0)----|---------------------------|--0--------0-(0)-----|
|-^0-----0--(0)----|-------2-(2)---------------|----0----0-----------|
|-^1---------------|-2-----2-(2)---------------|------1--------------|
|-^2---------------|-2-------------------------|---------------------|
|-^2---------------|-0-------------------------|---------------------|
|-^0---------------|---------------------------|---------------------|


  B
|------------------------|
|---12-12---12---12b14---|
|------------------------|
|------------------------|
|------------------------|
|------------------------|
|
|------------------------|
|----------------------7-|
|-8-------8-(8)--------8-|
|-9-------9-(9)----------|
|-9-------9-(9)----------|
|-7-------7-(7)----------|


                                        Guitar Solo
                                         E              B  C#m
|-------------------------------------||----9-----------------|
|---12pb14==(12)r(12)-----------------||------9-12-(12)----12-|
|-----------------------11----11-9----||----------------------|
|----------------------------------11-||----------------------|
|-------------------------------------||----------------------|
|-------------------------------------||----------------------|
|
|---------------------7-(7)-----------||----------------------|
|---------------------7-(7)---------7h||=9-------9------7---9-|
|---------------------------8--8----8h||=9-------9------8---9-|
|------------------9--------9--9----9-||---------9------9--11-|
|-9----------------------------9----x-||----------------------|
|-7----------------------------7----0-||----------------------|


                              A       B   E                 B         C#m
                            ~~
|---------------------------------------|------------------------9h12-12b14==|
|---------------------------------------|-------------------9h12-------------|
|--11pb13r(11)-9----9h11--------------9-|--------------9h11------------------|
|----------------11------9-11----9h11---|---------9h11-----------------------|
|---------------------------------------|----9h11----------------------------|
|---------------------------------------|------------------------------------|
|
|---------------------------------------|------------------------------------|
|--(9)------------------------10------7h|=9-------9---------7----------9-----|
|--(9)-------------------9-----9------8h|=9-------9---------8----------9-----|
|-(11)-------------------9h11---------9-|---------9---------9---------11-----|
|---------------------------------------|------------------------------------|
|---------------------------------------|------------------------------------|


                               A       B
                       ~~~~~~~~~
|-(12)r-12-12------------------------------|
|-------------12b14==(12)-(12)r===(12)-12--|
|------------------------------------------|
|------------------------------------------|
|------------------------------------------|
|------------------------------------------|
|
|------------------------------------------|
|--(9)-------------------------10-------7h=|
|--(9)---------9----------------9-------8h=|
|-(11)---------9h==========11-----------9--|
|------------------------------------------|
|------------------------------------------|


  E                 B    C#m                 A     B
                  ~
|---------------------------|-------------------------|
|---------------------------|------10p9---10----10s12-|
|-11b13r(11)------9---------|---x---9------9-----x----|
|------------11-------11----|---x--11p9---11----11s13-|
|---------------------------|-------------------------|
|---------------------------|-------------------------|
|
|---------------------------|-------------------------|
|--9------------9---7-----9-|--(9)-----------10-----7h|
|--9------------9---8-----9-|--(9)------9-----9-----8h|
|---------------9---9----11-|-(11)------9h11--------9-|
|---------------------------|-------------------------|
|---------------------------|-------------------------|


  E              B      C#m
|-------------------------------|
|-----9----12----9h10p9---------|
|------------------------9h11p==|
|---9----------9----------------|
|-------------------------------|
|-------------------------------|
|
|-------------------------------|
|-9------9-------7-------9------|
|-9------9-------8-------9------|
|--------9-------9------11------|
|-------------------------------|
|-------------------------------|


                    A         B
|--------------------------------------------||
|--------------9h10p9------------------------||
|---9-----------------11p9-------------------||
|------9h11----9h11p9------11p9h11p9h11p9h11-||
|--------------------------------------------||
|--------------------------------------------||
|
|--------------------------------------------||
|--(9)----------------10--------------7h=====||
|--(9)------9----------9--------------8h=====||
|-(11)------9h11----------------------9------||
|--------------------------------------------||
|--------------------------------------------||


 Interlude
  E         B  C#m                              A         B
|-----------------|-------------------------------------------|
|--------x--------|---9h=10p9---------------------------------|
|------9-x--9-----|-----------9h11p9----9--------9------------|
|------9----------|------------------11-9---------------------|
|-9-11------------|------------------------9h11----11s9p7-----|
|-----------------|---------------------------------------9---|
|
|-----------------|-------------------------------------------|
|-9------9--7---9-|--(9)------------------------10--------7h==|
|-9------9--8---9-|--(9)----------------9--------9--------8h==|
|--------9--9--11-|-(11)----------------9h11--------------9---|
|-----------------|-------------------------------------------|
|-----------------|-------------------------------------------|


  E        B  C#m                         A    B
|--------------9-|--(9)p7-12-12b14==(12)r-12-9--------|
|-------9--------|-----------------------------12b14==|
|-----9-9--------|------------------------------------|
|---9------------|------------------------------------|
|----------------|------------------------------------|
|----------------|------------------------------------|
|
|----------------|------------------------------------|
|-9-----9--7---9-|--(9)-------------------10----7h====|
|-9-----9--8---9-|--(9)-------9------------9----8h====|
|-------9--9--11-|-(11)-------9h=====11---------9-----|
|----------------|------------------------------------|
|----------------|------------------------------------|


  E                       B      C#m
             ~~~~~~
|------------------------------9----|
|-(12)r(12)-----------------------9-|
|-----------11b13====(11)r(11)------|
|-----------------------------------|
|-----------------------------------|
|-----------------------------------|
|
|-----------------------------------|
|---9--------------9--------7-----9-|
|---9--------------9--------8-----9-|
|------------------9--------9----11-|
|-----------------------------------|
|-----------------------------------|

[ Tab from: http://www.guitartabs.cc/tabs/r/rolling_stones/beast_of_burden_tab_tab.html ]
                A     B   E               B    C#m
|----------------0--0---|-------------------------|
|--12--12----12-12-12---|------9----9-(9)---------|
|------11---------------|-9----9----9h11----------|
|-----------------------|---11---11---------11----|
|-----------------------|-------------------------|
|-----------------------|-------------------------|
|
|-----------------------|-------------------------|
|--(9)----------10----7h|=9-------9-------7-----9-|
|--(9)-----9-----9----8h|=9-------9-------8-----9-|
|-(11)-----9h11-------9-|---------9-------9----11-|
|-----------------------|-------------------------|
|-----------------------|-------------------------|


                        A       B
|-------------------------------------||
|----------------9h10-9h10-9h10-9h10p=||
|-----------9-------------------------||
|------9h11---11-9h11-9h11-9h11-9h11p=||
|-------------------------------------||
|-------------------------------------||
|
|-------------------------------------||
|--(9)------------------10------7h====||
|--(9)---------9---------9------8h====||
|-(11)---------9h==11-----------9-----||
|-------------------------------------||
|-------------------------------------||


 4th Verse
  E            B        C#m
|---------------------------|
|-9-------------------------|
|-----9---9h11---9----9-(9)-|
|-9-9---9--------9h11-9h11--|
|---------------------------|
|---------------------------|
|
|---------------------------|
|-9-----9------7---------9--|
|-9-----9------8---------9--|
|-------9------9--------11--|
|---------------------------|
|---------------------------|


                      A       B    E              B       C#m
                                     PM  PM
|--------------------------------|----------------------------|
|----------------9h10-10-9h10-10p|=9--------------------------|
|-----------9--------------------|-----9---9h11p9-11----------|
|------9h11---11-9h11-11------11p|=9-9---9-----------9h11-----|
|--------------------------------|----------------------------|
|--------------------------------|----------------------------|
|
|--------------------------------|----------------------------|
|--(9)----------------10-------7h|=9-----9---------7-------9--|
|--(9)---------9-------9-------8h|=9-----9---------8-------9--|
|-(11)---------9h==11----------9-|-------9---------9------11--|
|--------------------------------|----------------------------|
|--------------------------------|----------------------------|


                             A         B
|-----------------------------------------|
|-----------------10---------10-9h10-9h10p|
|-----------9-----------------------------|
|------9-11-----9h11----9-11----9h11-9h11p|
|-----------------------------------------|
|-----------------------------------------|
|
|-----------------------------------------|
|--(9)-----------------------10---------7h|
|--(9)--------9---------------9---------8h|
|-(11)--------9h=====11-----------------9-|
|-----------------------------------------|
|-----------------------------------------|


  E       B  C#m                         A    B
|-------9-------|---------------------------------|
|-9-------------|---9h=12p9-9---------------------|
|---------------|-------------11b13-11p9----9-9---|
|-9-------------|------------------------11-9-----|
|---------------|---------------------------------|
|---------------|---------------------------------|
|
|---------------|---------------------------------|
|-9---9---7---9-|--(9)-------------------10---7h==|
|-9---9---8---9-|--(9)---------9----------9---8h==|
|-----9---9--11-|-(11)---------9h===11--------9---|
|---------------|---------------------------------|
|---------------|---------------------------------|


  E        B  C#m                      A         B
|--------x-----9-|----------------------------------||
|--------x-----9-|------12p9-10-(10)----------------||
|----9-9---9-----|------------9--(9)-9----9h11p9----||
|-9--------x-----|-------------------------------11p||
|----------0-----|----------------------------------||
|----------------|----------------------------------||
|
|----------------|----------------------------------||
|-9----9---7---9-|--(9)----------------10---------7h||
|-9----9---8---9-|--(9)-------9---------9---------8h||
|------9---9--11-|-(11)-------9h=11---------------9-||
|----------------|----------------------------------||
|----------------|----------------------------------||


 5th Verse
  E       B   C#m                           A       B
|----------------|---9-------------------------------------|
|---9--9---------|---9----12-(12)---9--9h10----10p9h10p9---|
|---9--9---------|-----------------------------------------|
|-9-------9-9----|------9---------9------------------------|
|----------------|-----------------------------------------|
|----------------|-----------------------------------------|
|
|----------------|-----------------------------------------|
|-9----9--7----9-|--(9)---------------------10-------7h====|
|-9----9--8----9-|--(9)-------------9--------9-------8h====|
|------9--9---11-|-(11)-------------9h11-------------9-----|
|----------------|-----------------------------------------|
|----------------|-----------------------------------------|


  E                 B                    C#m
|-9------------------------------------------|
|-9------------------------------------------|
|-----11b13r(11)b13r(11)b13r(11)b13r(11)-----|
|--------------------------------------------|
|--------------------------------------------|
|--------------------------------------------|
|
|--------------------------------------------|
|-9----9--------------7-------------------9--|
|-9----9--------------8-------------------9--|
|------9--------------9------------------11--|
|--------------------------------------------|
|--------------------------------------------|


                      A     B      E         B   C#m
                                               PM|
|------9-------------------------|-------------------|
|------9--12-----9h10---------10p|=9--------------9--|
|-------------------------9------|---x-0-------9-----|
|------------------------11---11p|=9-x---------9-----|
|--------------------------------|-------------------|
|--------------------------------|-------------------|
|
|--------------------------------|-------------------|
|--(9)----------------10----7h===|=9------9--7----9--|
|--(9)-------9---------9----8h===|=9------9--8----9--|
|-(11)-------9h=11----------9----|--------9--9---11--|
|--------------------------------|-------------------|
|--------------------------------|-------------------|


                          A             B
|-----------------------------------------|
|-----------9--------9------------10-10---|
|---------9--------9------------9-----9---|
|---9--11-----9-11---------9-11-----------|
|-----------------------------------------|
|-----------------------------------------|
|
|-----------------------------------------|
|--(9)--------------------10------------7h|
|--(9)---------------9-----9------------8h|
|-(11)---------------9h11---------------9-|
|-----------------------------------------|
|-----------------------------------------|


  E                 B     C#m                          A          B
|----------------------------|---------------------------------------|
|--------9------------9-9----|---------10-(10)------10p=9------------|
|------9-9----------9--------|----------9--(9)-------9---------------|
|-9-11---------9-11----------|---9--11---------9----11p=9----11p9----|
|----------------------------|----------------------------11---------|
|----------------------------|---------------------------------------|
|
|----------------------------|---------------------------------------|
|-9---------9-------7------9-|--(9)--------------------10---------7h=|
|-9---------9-------8------9-|--(9)------------9--------9---------8h=|
|-----------9-------9-----11-|-(11)------------9h11---------------9--|
|----------------------------|---------------------------------------|
|----------------------------|---------------------------------------|


  E          B         C#m
|-----------------------9-|
|--------------------9----|
|---------9----11b12------|
|----9-11-----------------|
|-------------------------|
|-------------------------|
|
|-------------------------|
|-9-------9--7----------9-|
|-9-------9--8----------9-|
|---------9--9---------11-|
|-------------------------|
|-------------------------|


                              A       B   E          B   C#m
|---------------------------------------|---------x----------|
|--12--12pb14-12------------------------|---------x----------|
|----------------11b13r(11)p9---------9-|------9--x-------x--|
|-----------------------------11-9h11---|-9------------x-----|
|---------------------------------------|-9h11---------------|
|---------------------------------------|--------------------|
|
|---------------------------------------|--------------------|
|--(9)------------------------10------7h|=9-------9--7----9--|
|--(9)------------9------------9------8h|=9-------9--8----9--|
|-(11)------------9h====11------------9-|---------9--9---11--|
|---------------------------------------|--------------------|
|---------------------------------------|--------------------|


                 A     B    E           B   C#m
|-------------------------|--------------------------|
|--10s=x-10sx-10s12-10s12-|--------------------------|
|---9----------9-----9----|----9----11----9h11-9-(9)-|
|--------------x----------|---------11---------9h11--|
|--------------0----------|--------------------------|
|-------------------------|--------------------------|
|
|-------------------------|--------------------------|
|--(9)-----------10-----7h|=9-----9-----7----9-------|
|--(9)------9-----9-----8h|=9-----9-----8----9-------|
|-(11)------9h11--------9-|-------9-----9---11-------|
|-------------------------|--------------------------|
|-------------------------|--------------------------|


                    A      B
|------------------------------|
|------------------------------|
|--(9)--x---9h11-----x-x-9-----|
|-(11)--x---9h11-----x-x-9-----|
|------------------------------|
|------------------------------|
|
|------------------------------|
|--(9)--------------10-----7h==|
|--(9)----9----------9-----8h==|
|-(11)----9h=====11--------9---|
|------------------------------|
|------------------------------|


                                                  Outro
  E           B   C#m                 A       B      E         B     C#m
|----------------------|------------------------||-----------------------|
|----------------------|-------9----------------||-----------------------|
|-x--9-11-11----9-11p9-|---------------x-9------||--------9----8h9-------|
|-x--9----------9-11p9-|--11-------------9----9-||-9h11p9----------------|
|----------------------|-------------------12---||-----------------0-----|
|----------------------|------------------------||-----------------------|
|
|----------------------|------------------------||-----------------------|
|-9-----9-----7----9---|--(9)---------10------7h||====9-----9--7------9--|
|-9-----9-----8----9---|--(9)----9-----9------8h||====9-----9--8------9--|
|-------9-----9---11---|-(11)----9h11---------9-||----------9--9-----11--|
|----------------------|------------------------||-----------------------|
|----------------------|------------------------||-----------------------|


                A           B
|------------------------------|
|---------------10-10-10-10-10-|
|---9----9-------9--9--9--9--9-|
|---9---11---------------------|
|---0--------------------------|
|------------------------------|
|
|------------------------------|
|--(9)----------10-----------7h|
|--(9)-----9-----9-----------8h|
|-(11)-----9h11--------------9-|
|------------------------------|
|------------------------------|


  E        B             C#m                   A   B
|-----------------------------|---9-----9-------------|
|-10p9------------------------|------12---------------|
|--9---------11b13==(11)r(11)-|-----------------------|
|-11p9------------------------|-----------------------|
|-----------------------------|-----------------------|
|-----------------------------|-----------------------|
|
|-----------------------------|-----------------------|
|--9----9--7---------------9--|--(9)-----------10--7h=|
|--9----9--8---------------9--|--(9)------9-----9--8h=|
|-------9--9--------------11--|-(11)------9h11-----9--|
|-----------------------------|-----------------------|
|-----------------------------|-----------------------|


  E            B       C#m                  A   B   E           B  C#m
|-12------9---------------|-----------------------|-------------------|
|-15b17---9-12------------|---------10----------x-|-9--9-----9--------|
|----------------11b13--9-|---9-----------------x-|------9------------|
|-------------------------|---9h=11-------------x-|--------9----------|
|-------------------------|-----------------------|-------------------|
|-------------------------|-----------------------|-------------------|
|
|-------------------------|-----------------------|-------------------|
|--9------9----7--------9-|--(9)------------10--7h|=9------9----7---9-|
|--9------9----8--------9-|--(9)-------9-----9--8h|=9------9----8---9-|
|---------9----9-------11-|-(11)-------9h11-----9-|--------9----9--11-|
|-------------------------|-----------------------|-------------------|
|-------------------------|-----------------------|-------------------|


                                     A          B
|--------------------------------------------------|
|-----------10-10-10-----------10-10------------10-|
|---------9------------------9----------------9----|
|---9h=11---------------9h11-------------9h11------|
|--------------------------------------------------|
|--------------------------------------------------|
|
|--------------------------------------------------|
|--(9)-------------------------------10----------7h|
|--(9)----------------9---------------9----------8h|
|-(11)----------------9h=======11----------------9-|
|--------------------------------------------------|
|--------------------------------------------------|


  E         B  C#m                        A       B
|-----------------|----------------------------------------|
|-----------------|-----------10-10----------10p9h10-10p===|
|-----9h11--------|---------9-----9-----------9-------9----|
|-----------------|---9h=11------------------11p9h11-11p===|
|-----------------|----------------------------------------|
|-0---------------|----------------------------------------|
|
|-----------------|----------------------------------------|
|-9------9--7---9-|--(9)------------------10-------7h======|
|-9------9--8---9-|--(9)-------------9-----9-------8h======|
|--------9--9--11-|-(11)-------------9h11----------9-------|
|-----------------|----------------------------------------|
|-----------------|----------------------------------------|


  E        B      C#m
|----------------------|
|-9-----9--------------|
|-------9----11p9h11p9-|
|-9--------------------|
|----------------------|
|----------------------|
|
|----------------------|
|-9---9----7-------9---|
|-9---9----8-------9---|
|-----9----9------11---|
|----------------------|
|----------------------|


                        A           B   E         B   C#m
|---------------------------------9---|-9-------9--------|
|--------------------10-(10)-(10)---9-|-9p0-------12-----|
|--(9)----------------9--(9)--(9)-----|------------------|
|-------9h11----9h11----------------9-|------------------|
|-------------------------------------|------------------|
|-------------------------------------|------------------|
|
|-------------------------------------|------------------|
|--(9)-------------------10---------7h|=9-----9----7---9-|
|--(9)-------9------------9---------8h|=9-----9----8---9-|
|-(11)-------9h11-------------------9-|-------9----9--11-|
|-------------------------------------|------------------|
|-------------------------------------|------------------|


                 B      B   E          B   C#m                   A          B
|-------------------------|-----9-------------|-----------------------------0--|
|-9h=10p=9----------------|-----9---12---9----|--10----9-----------------------|
|---------------------9---|--------------9----|---9----9-----------------------|
|-------------------9-----|---9---9----9------|------9---11-(11)-------9-------|
|-------------------------|-------------------|-------------------9h11---11----|
|-------------------------|-------------------|--------------------------------|
|
|-------------------------|-------------------|--------------------------------|
|----(9)---------10-----7h|=9-----9----7----9-|--(9)-------------10---------7h=|
|----(9)----9-----9-----8h|=9-----9----8----9-|--(9)------9-------9---------8h=|
|---(11)----9h11--------9-|-------9----9---11-|-(11)------9h=11-------------9--|
|-------------------------|-------------------|--------------------------------|
|-------------------------|-------------------|--------------------------------|


  E             B       C#m
|-----12----9--------------|
|-----------9---12-9h10p=9-|
|------------------9-------|
|---9---------x----9h11p=9-|
|-------------x------------|
|--------------------------|
|
|--------------------------|
|-9-------9------7-------9-|
|-9-------9------8-------9-|
|---------9------9------11-|
|--------------------------|
|--------------------------|


                 A         B   E               B   C#m
|----------------------------|----12---12-(12)---9----|
|----------------------------|-------9--------------9-|
|---9h=11-9-------9-9--9-----|------------------------|
|---------9-9h11------11p9---|------------------------|
|----------------------------|------------------------|
|----------------------------|------------------------|
|
|----------------------------|------------------------|
|--(9)-----------10--------7h|=9-----9---------7----9-|
|--(9)------9-----9--------8h|=9-----9---------8----9-|
|-(11)------9h11-----------9-|-------9---------9---11-|
|----------------------------|------------------------|
|----------------------------|------------------------|


                        A    B
|------------------------------|
|--------------------------x---|
|--11b12-11-9--------------x---|
|-------------9-11-(11)----x---|
|------------------------------|
|------------------------------|
|
|------------------------------|
|--(9)------------------10---7h|
|--(9)-----------9-------9---8h|
|-(11)-----------9h=11-------9-|
|------------------------------|
|------------------------------|


  E            B     C#m                     A       B
|-------------------------|------------------------------|
|-------------------------|------------------------------|
|----9-----------9--------|-------------9--9----11p9-----|
|------9----9------9----9h|==11----9h11--------------11--|
|--------11----------11---|------------------------------|
|-------------------------|------------------------------|
|
|-------------------------|------------------------------|
|-9-------9----7------9---|--(9)-------------10-------7h=|
|-9-------9----8------9---|--(9)------9-------9-------8h=|
|---------9----9-----11---|-(11)------9h==11----------9--|
|-------------------------|------------------------------|
|-------------------------|------------------------------|


  E             B    C#m                        A   B
    PM|     PM~
|-----------------------|--------------------------------|
|-----------------------|----------------x------10-------|
|-------------9---11----|--------------x---------9-------|
|--------9-11-----------|---------9h11----------11-------|
|---9-11----------------|---9h=11-------------------9h11-|
|-----------------------|--------------------------------|
|
|-----------------------|--------------------------------|
|-9---------9---7-----9-|--(9)------------------10--7h===|
|-9---------9---8-----9-|--(9)-------------9-----9--8h===|
|-----------9---9----11-|-(11)-------------9h11-----9----|
|-----------------------|--------------------------------|
|-----------------------|--------------------------------|


  E              B        C#m
|----------------------------|
|----------------10s12s10----|
|-9------9--------9--------x-|
|--------9----11-------------|
|---9-11---------------------|
|----------------------------|
|
|----------------------------|
|-9--------9------7--------9-|
|-9--------9------8--------9-|
|----------9------9-------11-|
|----------------------------|
|----------------------------|


                    A       B      E        B        C#m
|--9s==7-------------------------|-----9---------------------|
|-10s==9----------------9--------|-----9---------------------|
|-----------9-9-(9)----11p9------|-----9------9h11p9-------9-|
|---------9-----------------11p9-|-x--------------------11---|
|--------------------------------|-x-x-----------------------|
|--------------------------------|---------------------------|
|
|--------------------------------|---------------------------|
|-----(9)-----------10-------7h==|=9-----9--7---------9------|
|-----(9)-----9------9-------8h==|=9-----9--8---------9------|
|----(11)-----9h11-----------9---|-------9--9--------11------|
|--------------------------------|---------------------------|
|--------------------------------|---------------------------|


                          A   B
|--------------------------------*|
|--------------------------------*|
|--(9)h11p9--------9h11p9--------*|
|-----------11------------11-----*|
|--------------------------------*|
|--------------------------------*|
|
|--------------------------------*|
|--(9)--------------------10--7--*|
|--(9)----------9----------9--8--*|
|-(11)----------9h11----------9--*|
|--------------------------------*|
|--------------------------------*|



Comments