Rogue Republic - Solo Chords & Tabs

 

Solo Chords & Tabs

Rogue Republic Chords & Tabs

Version: 1 Type: Tab 0 ratings
1 star 2 stars 3 stars 4 stars 5 stars
comments

Solo Tab

Rogue Republic,Solo (live).
Tabbed by Evan Westre, evanwestre@hotmail.com.
  
Rogue Republic
Solo (live)

Granted, this won't be the most accurate tab in the world.  I wrote this piece a few months ago. When I recorded this, I played it nearly as I wrote it, although some of the runs weren't exact they were close.  For this particular exercise you will be requiring eight fingers to be very, very loose, as there is tapping with all of your fingers at some point.  Im sorry I could not include timing, but that would be a real pain in the ass for me to do and take a long time.  In order for you to play this you will need lots of time to adjust the flexibility of your fingers accordingly, although if you make mistakes it won't be detected as is played quickly.  Take it one step at a time and don't get frustrated.  This recording comes from a longer piece that I recorded.  I took this part because I am mst proud of this.  

I just started this tapping thing like three years ago and I love it.  It sounds so good.  I wouldn't expect all that many entries from me considering this one took like 2 and a half hours to tab out, but I'll put as many as I can on.  This is very influenced by Buckethead although not stolen.  Please send your comments to me at either Evanwestre@hotmail.com or evanwestre@evansmail.com

Thank you for your time and enjoy!

[ Tab from: http://www.guitartabs.cc/tabs/r/rogue_republic/solo_tab.html ]
------------------------------------------------------------------------------------------------
------------------------------------------------------------------------------------------------
------------------------------------------------------------------------------------------------
------------------------------------------------------------------------------------------------
------------------------------------------------------------------------------------------------
------------------------------------------------------------------------------------------------
 T              T            T   T                T  T  T  T           T           T
21-18-17-15-13--21-17-15-12-18--22-18-12-9-------24-23-21-19-8--------23-17-15-12-23-15-12-8---
22-18-17-15-13--xx-18-15-12-19-----------18-14-11----------------T-17--------------------------
----------------------------------------------------------------23-14-------------20-----------
-------------------0---------------------------------------------------------------------------
-----------------------------------------------------------------------------------------------
-----------------------------------------------------------------------------------------------
 T                4x    T     T         2x   T            8x      T  T  T
(22-18-19-21-15--)----(21-15-20-14-15--)---(24-17-16-14--)-------22-19-18-13-12-10--T--T---------
(--------------15)----(--------------17)---(21-14-17---17)-------------------------22-18-12-11-10
------------------------------------------------------------------------------------------------
-----------------------------------------------------------------(Very fast on these runs)------
------------------------------------------------------------------------------------------------
------------------------------------------------------------------------------------------------
 T  T                  T  T          T  T           T  4x      T     4x     T      4x   T    10x
21-19-10-9-7----------21-19-10-7-5--20-18-10-7-5--(20-8-7-5)-(13-0-6-4-5)-(15-0-5-2-3)-(7-0-2-5)
-------------12-10-9------------------------------(20-8-6-5)-(13-0-5-6-4)-(13-0-5-2-3)-(9-0-4-7)
------------------------------------------------------------------------------------------------
------------------------------------------------------------------------------------------------
------------------------------------------------------------------------------------------------
------------------------------------------------------------------------------------------------
 T      4x   T       4x    T       4x      T      4x        T    T     6x      T       6x
(5-0-1-2-3)-(7-0-3-4-5-6)-(8--0-4-5-6-7)-(10-0-6-7-8--9-)-(11-0-11-8--9--10)-(15-10-12-13)------
(7-0-2-3-5)-(9-0-4-5-6-7)-(10-0-5-6-7-8)-(12-0-8-9-10-11)-(13-0-13-10-11-10)-(19-12-13-15)------
------------------------------------------------------------------------------------------------
--------------------------------------------------------Now prepare for some eight finger-------
--------------------------------------------------------extraveganza!!!-------------------------
------------------------------------------------------------------------------------------------
  T(2)  T(2)  T(3)  T(1)   18x (trickiest run of them all w\ slight variations.  nothing major)
(20-15-21-16-22-18-19-14)----------------------------------------------------------------------
(24-0--23-0--24-0--23-0-)----------------------------------------------------------------------
--T(4)--T(4)--T(4)--T(4)---------------------------------------------------------------------
-----------------------------------------------------------------------------------------------
-----------------------------------------------------------------------------------------------
-----------------------------------------------------------------------------------------------
For a few seconds after this is improv
I won't lead you in the wrong direction 
by making something up for the tab.

After approx.  11 seconds of improv it resumes:
  T(1)   T(2)  6x   T(1)       T(3)
|--(12-0-5-13-6-8)----15-8-10-12-17-8---T----------T----------------------------------------
|--(15-0-6-17-6-8)----15-8-10-12-17-8--15-8-10-12-17-8--------------------------------------
|*---T(3)---T(4)-----------------------14-9-10-12-18-9--T----------T-----T---------T--------
|*-----------------------------------------------------14-9-10-12-18-9--12-7-8-10-15-7------
|------------------------------------------------------15-8-10-12-17-8--13-7-8-10-15-7------
|-------------------------------------------------------------------------------------------
This is a tricky one
 T                                                                 T          T       4x
13-7-8-10-15-7------------------------------------T----------T----15-8-10-12-17-8-----|
-------------------------------------------------15-8-10-12-17-8--15-8-10-12-17-8-----|
------------------T---------T-----T----------T---14-9-10-12-18-9---------------------*|
-T---------------12-7-8-10-15-7--14-9-10-12-18-9-------------------------------------*|
12-7-8-10-15-7---13-7-8-10-15-7--15-8-10-12-17-8--------------------------------------|
13-7-8-10-15-7------------------------------------------------------------------------|
                                    T(2)        T(2)     T(4)        T(4)    T(2)T(4)T(2)
-----------------------------------22-19-20-19-22-21-19-24-18-17-21-24-18-15-22--24--22-18-20--
--T--------------T------------14x--20----------20-------20----------20-------19--21--19--------
(18-0--12-0--13-19-16-14-0--12)----------------------------------------------------------------
(18-12-18-12-13-19-16-14-12--0)----------------------------------------------------------------
-----------------------------------------------------------------------------------------------
-----------------------------------------------------------------------------------------------

15-0-7-8-5-9--13-0-8-10-7--12-0-5--8-3--12-0-5-4-3--7--5-2-3-0--2h3p2-2h3p2-0~~~~~~~~~~~~~~~~
17-x-8-9-7-9--10-----10----10-----10----------------12----------12~---12~---7h8p7-7h8p7-5~~~~
------------------------------------------------------------------------------------------------
------------------------------------------------------------------------------------------------
------------------------------------------------------------------------------------------------
------------------------------------------------------------------------------------------------

--0-0~--3-----0-------------------------------------------------------------------------------
--0-0~--3-----0-------------------------------------------------------------------------------
--0-0~--0-----1-------------------------------------------------------------------------------
--2-2~--0-----2-------------------------------------------------------------------------------
--2-0~--2-----2-------------------------------------------------------------------------------
--0-0~--3--0--0-------------------------------------------------------------------------------


:: Ultimate Guitar Archive :: 
http://www.ultimate-guitar.com
Comments