Roger Waters - Me Or Him Chords & Tabs

 

Me Or Him Chords & Tabs

Roger Waters Chords & Tabs

Version: 1 Type: Tab 0 ratings
1 star 2 stars 3 stars 4 stars 5 stars
comments

Me Or Him Tab

   
Roger Waters - ME OR HIM?
Added to UG By Mikhailo (mikhailo_@mail.ru)


Tuning: e B G D A D

Intro w/echo
e|---------------------------------------------
B|---------------------------------<5>---------
G|----------------------------<5>--------------
D|-------------------<5>-----------------------
A|----------<5>--------------------------------
D|-<5>-----------------------------------------


  Riff 1                         Riff 2
  -2-2-2-2-2-2---2-2-0-0-0--          --0-----0-0-0---2-2-2-0-0---- 
  -3-3-3-3-3-3---3-3-3-3-3--          --0-0-0-0-0-0---0-0-0-0-0----
  -2-2-2-2-2-2---2-2-2-2-2--          --0-0-0-0-0-0---0-0-0-0-0----  
  -0-0-0-0-0-0---0-0-0------          --2-2-2-2-2-2---2-2-2-2-2----
  -0-0---0---0-----0-0------          --2-2-2-2-2-2---2-2-2-2-2-----
  --------------------------          --0-0-0---------0---0-------
 
Verses
[ Tab from: http://www.guitartabs.cc/tabs/r/roger_waters/me_or_him_tab.html ]
   Riff 1
        You wake up in the morning get somethings for the pot
   Riff 2
        Wonder why the sun makes the rocks feel hot
   Riff 2
        Draw on the walls eat get laid 
   Riff 1                        Dsus4 D Dsus2 
        Back in the good old days


   Riff 1
        Then some damn fool invents the wheel
   Riff 2
        Listen to the white walls squeal 
   Riff 2
        You spend all day looking for a parking spot
   Riff 1                                          
        Nothing for the heart, nothing for the pot


repeat pattern through rest of verses

Chorus
        G                                           Riff 1                   
        Benny turned the dial on his short wave radio
        G     
        Oh how he wanted to talk to the people
                     Riff 1
        he wanted his own show
        A
        Tune in Moscow, Tune in New York

        Listen to Welsh kid talk
   D                  Dm                Dsus2
        Communicating like the good old days
Comments