Roger Waters - 506am Every Stranger Eyes Chords & Tabs

 

506am Every Stranger Eyes Chords & Tabs

Roger Waters Chords & Tabs

Version: 1 Type: Tab 0 ratings
1 star 2 stars 3 stars 4 stars 5 stars
comments

506am Every Stranger Eyes Tab

   
-------------------------------------------------------------------------------
                 5:06AM (EVERY STRANGERS EYES) - Roger Waters
-------------------------------------------------------------------------------

Tabbed By : phx
e-mail: justast@splius.lt

Tuning: EADG

The tab may not be 100% correct, this is how I play it.

Intro
G|---------------------------------------------------------------------------|
D|---------------------------------------------------------------------------|
A|-3--------------------------------5---------------\------------------------|
E|---------------------------------------------------------------------------|
   you wanna cup of..               I'm sorry, would you like..
   
Verse1
G|---------------------------------------------------------------------------|
D|---------------------------------------------------------------------------|
A|--3-------------------------------5----------------------------------------|
E|---------------------------------------------------------------------------|
    In truck stops..                has beens and bent backs..

G|---------------------------------------------------------------------------|
D|---------------------------------------------------------------------------|
A|--3--------------------------/7-6-5----------------------------------------|
E|--------------------------------------------------3------------------------|
  In libraries..                    in the pages..  and suicidal cavalry.. 
  
G|---------------------------------------------------------------------------|
D|---------------------------------------------------------------------------|
A|--3-----------2---0------------0------------------3------------------------|
E|----------------------------------1-------3--------------------------------|
                                    myself in every..

Verse2
G|-----------------------------99-8-7----------------------------------------|
D|---------------------------------------------------------------------------|
A|--3-----33---35-5-7--------------------------------------------------------|
E|--------------------------------------------------3------------------------|
And in wheel..      under tube..     in council..  at Eastern fairs..

G|---------------------------------------------------------------------------|
D|---------------------------------------------------------------------------|
A|--3-----------3-5-7-----------7-6-5----------------------------------------|
E|--------------------------------------------------3------------------------|
 In drawing..     ..photographs.. ..transit camps..  and faces blured..
 
G|---------------------------------------------------------------------------|
D|---------------------------------------------------------------------------|
A|--3-----------2---0-------------------------------3------------------------|
E|----------------------------------1-------3--------------------------------|
                                    myself in every..
[ Tab from: http://www.guitartabs.cc/tabs/r/roger_waters/506am_every_stranger_eyes_tab.html ]
Verse3 - I'm not sure about it
G|---------------------------------------------------------------------------|
D|---------------------------------------------------------------------------|
A|--3-----3-3-------------7-7---7-6-5-----5-5--------------------------------|
E|------------------0-------------------------------3-----3-3----------------|
 And now         ..stand, upon this hill..        ..pool..

G|---------------------------------------------------------------------------|
D|--------------------------------------------------5-----5-5----------------|
A|--3-----3-3---3-5-7-----7-7-----6-5-----5-5--------------------------------|
E|---------------------------------------------------------------------------|
  ..around..      ..sky..         ..eyes so nearly blind..

G|----------5--5-4--2-----------2-0------------------------------------------|
D|----------------------------------3-32-20----3-0235------------------------|
A|--3-----3---------------0-0------------------------------------------------|
E|---------------------------------------------------------------------------|
  ..sights..      ..days..        ..chime..       ..ways..
  
G|---------------------------------------------------------------------------|
D|---------------------------------------------------------------------------|
A|--3-----3-3---2---0-------------------------------3------------------------|
E|----------------------------------1-------3--------------------------------|
recognize..                         the hope..    ..eyes..

instrumental with no bass except |---|
                                 |---|
                                 |---|
                                 |-5-| - listen to the record

I think there is no bass in Verse4, bass sound is produced by keyboards
You can play just roots of the chords, if you wish:
G|---------------------------------------------------------------------------|
D|----------------------------------3---------------5------------------------|
A|-3----------------3--------------------------------------------------------|
E|---------------------------------------------------------------------------|
It's oh, so easy..             ..we lie here in the dark..

G|---------------------------------------------------------------------------|
D|-2------------------------------------------------5------------------------|
A|------------------0---------------5----------------------------------------|
E|---------------------------------------------------------------------------|
 ..interferes..   ..beat the tears..threaten....the smoke of our

G|---------------------------------------------------------------------------|
D|---------------------------------------------------------------------------|
A|-3-------------------------------------------------------------------------|
E|---------------------------------------------------------------------------|
   love


| /  slide up
| \  slide down
| h  hammer-on
| p  pull-off
| ~  vibrato
| +  harmonic
| x  Mute note
===============================================================================
Comments