Roger Miller - Oo De Lally Chords & Tabs

 

Oo De Lally Chords & Tabs

Roger Miller Chords & Tabs

Version: 1 Type: Tab 0 ratings
1 star 2 stars 3 stars 4 stars 5 stars
comments

Oo De Lally Tab

Disney's Robin Hood
"Oo De Lally"
Roger Miller

tabbed out by Rikki 

This film is my fav disney one i luv it

I've put some bits into segments so its easier 2 read

full lyrics at the bottom

EADGBe   fingerpicked song

Intro
|---------|---------|---------|
|---3---3-|---3---3-|---3---3-|
|---3---3-|---3---3-|---3---3-|
|-3-------|-3-------|-3-------|
|-----1---|-----1---|-----1---|
|---------|---------|---------|


[Fig-1]
|---------|---------|---------|---------|
|---3---3-|---4---3-|---3---3-|---2---3-|
|---3---3-|---3---3-|---3---3-|---2---3-|
|-3-------|-3-------|-3-------|---------|
|-----1---|-----1---|-----1---|-0---1---|
|---------|---------|---------|---------|
robin hood_____forest___back&forth___has to say

====================
Bridge 1
|---------|-----|
|---3---3-|---3-|
|---3---3-|---3-|
|-3-------|-3---|
|-----1---|-----|
|---------|-----|

====================

|---------|---------|---------|---------|
|---3---3-|---4---3-|---3---3-|---2---3-|
|---3---3-|---3---3-|---3---3-|---2---3-|
|-----3---|-----3---|-3-------|---------|
|-1-------|-1-------|-----1---|-0---1---|
|---------|---------|---------|---------|
reminiscin'__good time__oo de laly___what a day

====================
Bridge 2
[Fig-2]
|---------|---------|
|---3---3-|---3---3-|
|---3---3-|---3---3-|
|-3-------|-3-------|
|-----1---|-----1---|
|---------|---------|

====================
[ Tab from: http://www.guitartabs.cc/tabs/r/roger_miller/oo_de_lally_tab.html ]
|---------|---------|---------|---------|
|---3---3-|---3---3-|---4---4-|---4---4-|
|---3---3-|---3---3-|---3---3-|---3---3-|
|-3-------|-3-------|-3-------|-3-------|
|-----1---|-----1---|-----3---|-----3---|
|---------|---------|---------|---------|
never______danger_water__drinkin__guzzled it down,
                      
                  Louder[----------->]
|---------|---------|----------------|
|---------|---------|----11111111111-|
|---5---5-|---5---5-|----22222222222-| (listen to the rhythm to get this
|---5---5-|---5---5-|----33333333333-| last bit right)
|-3-------|-3-------|----33333333333-|
|-----5---|-----5---|-1--11111111111-|

===================
Rpt fig 1

Rpt fig 2

Rpt fig 1
===================
Bridge 3
|---------|-----|
|---3---3-|---3-|
|---3---3-|---3-|
|-3-------|-3---|
|-----1---|-----|
|---------|-----|

===================

Outro           
             Fast 'Flamingo' style
                            \
                        [    \    ] [let ring____________________]    
|----------|----------------------------------------------------|
|---3---3--|-6-------5-------3-3-3---3--------------------------|
|---3---3--|-6-------5------3-3-3----3--------------------------|
|----------|-6-------5-----3-3-3-----3--------------------------|
|-3---1----|-4-------3----1-1-1------1--------------------------|
|----------|----------------------------------------------------|
oo de_______golly what a day___________________________________



Robin Hood and Little John 
Walking through the forest 
Laughin' back and forth 
At what the other un has to say 

Reminiscin' This-'n'-that 
An' havin' such a good time 
Oo-de-lally, Oo-de-lally 
Golly, what a day 

Never ever thinkin' there was danger in the water 
They were drinkin', they just guzzled it down 
Never dreamin' that a schemin' sherrif and his posse 
Was a-watchin' them an' gatherin' 'round 

Robin Hood and Little John 
Runnin' through the forest 
Jumpin' fences, dodgin' trees 
An' tryin' to get away 
Contemplatin' nothin' 
But escape an' fin'lly makin' it 
Oo-de-lally, Oo-de-lally 
Golly, what a day 

Oo-de-lally, Oo-de-lally 
Golly, what a day______________ 



Please rate this tab well and comment, i spent hours listening to the tune and
writing out the tab on paper, then another hour typing it up here just for you people!!!!!!

shadow__sonic@hotmail.com
Comments