Roger Clyne - I Dont Need Another Thrill Chords & Tabs

 

I Dont Need Another Thrill Chords & Tabs

Roger Clyne Chords & Tabs

Version: 1 Type: Tab 0 ratings
1 star 2 stars 3 stars 4 stars 5 stars
comments

I Dont Need Another Thrill Tab

   
         I Don't Need Another Thrill - Roger Clyne and the Peacemakers
-------------------------------------------------------------------------------
Tabbed by:Devon
Email: Reese32b@verizon.net

Tuning: Standard

Chords Used:

G|320033|
A|-0222-|
D|--0232|
B|-24432|

Rhythm:
(Occurs throughout most of the song. Verse, Chorus, Solo part. Everything but the Bridge)

e|-3--3-------2--2---3-2-0--     e|-2-------2--2--------3--3--------2------
B|-3--3--2-2--3--3---------2     B|-3-------3--3--2--2--2--2--2-----3------
G|-0--0--2-2--2--2---------- x2  G|-2-------4--4--2--2--0--0--2-----2------ 
D|-0--0--2-2--0--0----------     D|-0-------4--4--2--2--0--0--2-----0------
A|-2--2--0-0----------------     A|----4-2--2--2--0--0--2--2--0-2-4--------
E|-3--3---------------------     E|---------------------3--3---------------


Leads:

Main lead is as follows:

e|------------------------------------------------------------------------|
B|---8-7------------------------------------------------------------------|
G|-------9-7-9-11-7---7-9-9b11r9-7---4-2-0--------------------------------|
D|-----------------------------------------4-5-7--------------------------|
A|-----------------------------------------------5--5-7-7b9r7-5-----------|
E|------------------------------------------------------------------------|
[ Tab from: http://www.guitartabs.cc/tabs/r/roger_clyne/i_dont_need_another_thrill_tab.html ]
e|------------------------------------------------------------------------|
B|------------------------------------------------------------------------|
G|------------------------------------------------------------------------|
D|--------4--------2h4----------------------------------------------------|
A|---5--7---4---2------0----------0-2-4-0-7-5-----------------------------|
E|-------------------------2---3------------------------------------------|


Fill:

e|------------------------------------------------------------------------|
B|------------------------------------------------------------------------|
G|------------------------------------------------------------------------|
D|--------4--------2h4----------------------------------------------------|
A|---5--7---4---2------0----------0-2-4-0-7-5-----------------------------|
E|-------------------------2---3------------------------------------------|


Bridge:

e|---2-------3--    --3-------2--|
B|---3---2---3--    --3---2---3--|
G|---2---2---0--    --0---2---2--|
D|---0---2---0-- x2 --0---2---0--| x2
A|-------0---2--    --2---0------|
E|-----------3--    --3----------|


Listen to the song for the location of the main lead and the fill. It is a much more
simple song than it sounds at first. There is also a solo type part that I am unsure
of.  It is played over the main lead and the rhythm after the second solo leading to
the  bridge.
Comments