Rod Stewart - Sailing Chords & Tabs

 

Sailing Chords & Tabs

Rod Stewart Chords & Tabs

Version: 2 Type: Tab 0 ratings
1 star 2 stars 3 stars 4 stars 5 stars
comments

Sailing Tab

   
#----------------------------------PLEASE NOTE--------------------------------#
#This file is the author's own work and represents their interpretation of the#
#song. You may only use this file for private study, scholarship, or research.#
#-----------------------------------------------------------------------------#


Here is the guitar tab to "Sailing" written by Gavin Sutherland and recorded by Rod Stewart

Chords used

   B 	         G#m		E	    C#m		F#7
---7---        ---7---       ---9---      ---9---     --9----
---7---        ---9---       ---9---      ---9---     --11---
---8---        ---8---       ---9---      ---9---     --9----
---9---        ---6---       ---9---      ---11--     --11---
---9---        -------       ---7---      ---11--     --9----
-------        -------       -------      ---9---     --------


Intro
|--------------------------------------------------|
|--------5-----------5----------5-----------5------|
|-----9-----------9----------9------------9--------|
|--9--------9--9--------9--9--------9---9------9---|
|--------------------------------------------------|
|--------------------------------------------------|

[ Tab from: http://www.guitartabs.cc/tabs/r/rod_stewart/sailing_tab_ver_2.html ]
|--------7------------7-----------7-----------7-------|
|-----7------------7-----------7-----------7----------|
|----------8------------8-----------8------------8----|
|--9-----------9-----------------------9--------------|
|--------------------------9--------------------------|
|-----------------------------------------------------|

|--------------------------------------------------|
|--------5-----------5----------5-----------5------|
|-----9-----------9----------9------------9--------|
|--9--------9--9--------9--9--------9---9------9---|
|--------------------------------------------------|
|--------------------------------------------------|

                                         I       am
|--------7------------7---------------------------------|
|-----7------------7-------------11-----12-----14-------|
|----------8------------8-----------9-------------------|
|--9-----------9--------------11-----------14------14---|
|--------------------------9------------11-----13-------|
|-------------------------------------------------------|

B		G#m		E		B	  C#m
Sail-ing I am sail-ing home a-gain 'cross the sea I am sail-ing stormy

G#m		C#m	      B
waters to be near you to be free

F#7    B	    G#m		   E		    B	     C#m
I am   flying I am flying like a bird 'cross the sky I am flying passing

G#m		   C#m	           B
high clouds to be with you to be free
Comments