Rocky Votolato - Crabtree And Evelyn Chords & Tabs

 

Crabtree And Evelyn Chords & Tabs

Rocky Votolato Chords & Tabs

Version: 1 Type: Chords 0 ratings
1 star 2 stars 3 stars 4 stars 5 stars
comments

Crabtree And Evelyn Chords

   
----------------------------------------------------------------------------
Crabtree & Evelyn -  tabbed by lance lockwood
Rocky Votolato
----------------------------------------------------------------------------

tuned half a step down from standard

eb|---0----0-----0-----0                                            
bb|---0----0-----5-----0                                                   
gb|---1----8-----6-----6                                                   
db|---2----9-----6-----7                                                   
ab|---2----9-----4-----7                                                   
Eb|---0----7-----0-----5   
      E    B    c#m    A         

INTRO: uses chord E
[ Tab from: http://www.guitartabs.cc/tabs/r/rocky_votolato/crabtree_and_evelyn_crd.html ]
eb|-------------|-----------|-----------|-----------|-----------------0-|
bb|-------------|-----------|-----------|-----------|-----------------0-|
gb|-------1---1-|-----1---1-|-----1---1-|-----1---1-|-----------------1-|
db|-------2---2-|-----2---2-|-----2---2-|-----2---2-| long full chord-2-|
ab|-------------|-----------|-----------|-----------|-----------------2-|
Eb|--0--0---0---|0--0---0---|-0-0---0---|-0-0---0---|-----------------0-|
       


E      B        E         B    E         
      I catch a hint of how you smelt
E     B      c#m             A
      On the 1st day that we met
A          E    B            E pause  
      As I hang up your blue pants
      B       E           B    c#m
      Next to mine, we're intertwined
c#m         A              E B      c#m
      In my closet and I'm reminded of 
           A       E         B                c#m
      The greenest eyes that ever burned from behind
c#m   A   E         B   E
      Crabtreee and Evelyn
Comments