Rocktopus - Little Miss Used Chords & Tabs

 

Little Miss Used Chords & Tabs

Rocktopus Chords & Tabs

Version: 1 Type: Tab 0 ratings
1 star 2 stars 3 stars 4 stars 5 stars
comments

Little Miss Used Tab

   
GAFFED THIS FROM ANOTHER SITE TO YET AGAIN IMPROVE THIS ONE

intro
e|-----------------|
B|-------------1-3-|
G|-------0-1-2-----|
D|---0-3-----------|
A|-3---------------|
E|-----------------|

main riff
e|-----------------|-----------------|
B|-----------------|-------------1-3-|
G|-------0-1p0-----|-------0-1-2-----|
D|---0-3-------3p0-|---0-3-----------|
A|-3---------------|-3---------------|
E|-----------------|-----------------|
         x3                x1

verse
e|-5~----7~----8~----7~----|-5~----7~-------------------8-10-|
B|-6~----6~----6~----6~----|-6~----6~------------8-9-10------|
G|-------------------------|----------------7-10-------------|
D|-------------------------|-------------10------------------|
A|-------------------------|---------------------------------|
E|-------------------------|---------------------------------|
             x3                             x1
[ Tab from: http://www.guitartabs.cc/tabs/r/rocktopus/little_miss_used_tab.html ]
bridge A
e|-------------|---------------------|-------------|---------------------|----------------8-10-|
B|-------------|---------8-9h8-------|-------------|---------8-9h8-------|---------8-9-10------|
G|-12---12-12-|----7-10-------7h10--|-12---12-12-|----7-10-------7h10--|----7-10-------------|
D|-12---12-12-|-10------------------|-12---12-12-|-10------------------|-10------------------|
A|-10---10-10-|---------------------|-10---10-10-|---------------------|---------------------|
E|-------------|---------------------|-------------|---------------------|---------------------|
       x2                x2                 x2
note-to play bridge B just repeat the 4th segment of bridge A 3x.

chorus A      variation:
e|---0~---|   e|--------|
B|-----1~-|   B|-8-7-5~-|
G|-0~-----|   G|--------|
D|--------|   D|--------|
A|--------|   A|--------|
E|--------|   E|--------|
     x3
note-to play chorus B just add the variation on to chorus A and play twice.
Comments