Rocktopus - Get Away Chords & Tabs

 

Get Away Chords & Tabs

Rocktopus Chords & Tabs

Version: 2 Type: Tab 0 ratings
1 star 2 stars 3 stars 4 stars 5 stars
comments

Get Away Tab

   
Rocktopus - Get Away

pretty simple song... make sure you know what it sounds like before you try to
play it though.

^=bend up half step

Intro (Spence)
e|-----------------------------------------|
B|-----------------------------------------|
G|-----------------------------------------|
D|-----------------------------------------|
A|-----------------------------------------|
E|-0-0-0-0-0-0-0-0-12-12-12-12-12-12-12-12-|

Main Riff
Guitar 1 (Dr. Jones)
e|-----------------------------------------|
B|-----------------------------------------|
G|-------------7-----9---------------------|
D|-7-----5-----7-----9-----7---9---7-----5-|
A|-7-----5-----5-----7-----7---9---7-----5-|
E|-5-----3-----------------5---7---5-----3-|

Guitar 2 (Spence)
e|--------------------------------------------------------|
B|--------------------------------------------------------|
G|-9-9-9-9-9-9-9-9-9-9-9-9-9-9-9-9-9-9-9-9-9-9-9^-9-9-9^-9|
D|-9-9-9-9-9-9-9-9-9-9-9-9-9-9-9-9-9-9-9-9-9-9-9^-9-9-9^-9|
A|-7-7-7-7-7-7-7-7-7-7-7-7-7-7-7-7-7-7-7-7-7-7-7^-7-7-7^-7|
E|--------------------------------------------------------|

Verse
Both guitars
e|-----------------------------------------------------------------|
B|-----------------------------------------------------------------|
G|-----------------------------------------------------------7---9-|
D|-2-2-2-2-2-2-2-2-2-2-2-2-2-2-2-2-2-2-2-2-2-2-2-2-2-2-2-2---7---9-|
A|-2-2-2-2-2-2-2-2-2-2-2-2-2-2-2-2-2-2-2-2-2-2-2-2-2-2-2-2---5---7-|
E|-0-0-0-0-0-0-0-0-0-0-0-0-0-0-0-0-0-0-0-0-0-0-0-0-0-0-0-0---------|
 pm. . . . . . . . . . . . . . . . . . . . . . . . . . . .

Bridge
Both guitars
e|-----------------------------------------------------------------|
B|-----------------------------------------------------------------|
G|-5-5-5-5-5-5-5-5-5-5-5-5-5-5-5-5---------------------------------|
D|-5-5-5-5-5-5-5-5-5-5-5-5-5-5-5-5-7-7-7-7-7-7-7-7-7-7-7-7-7-7-7-7-|
A|-3-3-3-3-3-3-3-3-3-3-3-3-3-3-3-3-7-7-7-7-7-7-7-7-7-7-7-7-7-7-7-7-|
E|---------------------------------5-5-5-5-5-5-5-5-5-5-5-5-5-5-5-5-|

Chorus
Guitar 1 (Dr. Jones)
E|-0-0-0-0-0-0-0-0-0-0-0-0-0-0-0-0-0-0-0-0-0-0-0-0-0-0-0-0-0-0-0-0-|
B|-0-0-0-0-0-0-0-0-0-0-0-0-0-0-0-0-0-0-0-0-0-0-0-0-0-0-0-0-0-0-0-0-|
G|-1-1-1-1-1-1-1-1-1-1-1-1-1-1-1-1-1-1-1-1-1-1-1-1-1-1-1-1-1-1-1-1-|
D|-2-2-2-2-2-2-2-2-2-2-2-2-2-2-2-2-2-2-2-2-2-2-2-2-2-2-2-2-2-2-2-2-|
A|-2-2-2-2-2-2-2-2-2-2-2-2-2-2-2-2-2-2-2-2-2-2-2-2-2-2-2-2-2-2-2-2-|
E|-0-0-0-0-0-0-0-0-0-0-0-0-0-0-0-0-0-0-0-0-0-0-0-0-0-0-0-0-0-0-0-0-|
[ Tab from: http://www.guitartabs.cc/tabs/r/rocktopus/get_away_tab_ver_2.html ]
e|---------------------------------|
B|---------------------------------|
G|---------------------------------|
D|-5-5-5-5-5-5-5-5-4-4-4-4-3-3-3-3-|
A|-5-5-5-5-5-5-5-5-4-4-4-4-3-3-3-3-|
E|-3-3-3-3-3-3-3-3-2-2-2-2-1-1-1-1-|

Guitar 2 (Spence)
e|-----------------------------------------------------------------|
B|-----------------------------------------------------------------|
G|-9-9-9-9-9-9-9-9-9-9-9-9-9-9-9-9-9-9-9-9-9-9-9-9-9-9-9-9-9-9-9-9-|
D|-9-9-9-9-9-9-9-9-9-9-9-9-9-9-9-9-9-9-9-9-9-9-9-9-9-9-9-9-9-9-9-9-|
A|-7-7-7-7-7-7-7-7-7-7-7-7-7-7-7-7-7-7-7-7-7-7-7-7-7-7-7-7-7-7-7-7-|
E|-----------------------------------------------------------------|

e|---------------------------------|
B|---------------------------------|
G|---------------------------------|
D|-5-5-5-5-5-5-5-5-4-4-4-4-3-3-3-3-|
A|-5-5-5-5-5-5-5-5-4-4-4-4-3-3-3-3-|
E|-3-3-3-3-3-3-3-3-2-2-2-2-1-1-1-1-|

Solo
Both guitars
part 1
e|-----------------------------------------------------------------------|
B|-----------------------------------------------------------------------|
G|-----------------------------------------------------------------------|
D|-----------------------------------------------------------------------|
A|-----------------------------------------------------------------------|
E|-0-10-12-0-9-10-0-7-9-0-5-7---0---0---5-7-0-7-9-0-9-10-0-10-12---0---0-|

part 2
e|----------------------------------------------|
B|----------------------------------------------|
G|-7-------9-------11---------11------9-------7-|
D|-7---7---9---9---11--11-11--11--9---9---7---7-|
A|-5---7---7---9---9---11-11--9---9---7---7---5-|
E|-----5-------7-------9--9-------7-------5-----|

e|--------------------------------------------------------------|
B|--------------------------------------------------------------|
G|-7-------9-------11--------------11-11-11-------9-9-9-----7-7-|
D|-7---7---9---9---11--11-11-11-11-11-11-11-9-9-9-9-9-9-7-7-7-7-|
A|-5---7---7---9---9---11-11-11-11-9--9--9--9-9-9-7-7-7-7-7-5-5-|
E|-----5-------7-------9--9--9--9-----------7-7-7-------5-5-----|

Ending
Guitar 1 (Dr. Jones)
e|------------0-0-|
B|------------0-0-|
G|------------1-1-|
D|------------2-2-|
A|------------2-2-|
E|-0-0~-------0-0-|

Guitar 2 (Spence)
e|----------------|
B|----------------|
G|------------9-9-|
D|------------9-9-|
A|------------7-7-|
E|-0-0~-----------|

Order:

Intro x4
Main Riff x2
Verse x2
Bridge
Main Riff
Verse x2
Bridge
Chorus x2
Main Riff x2
Verse x2
Bridge
Chorus x2
Solo part 1 x2
Solo part 2
Intro x2
Chorus x2
Solo part 1 x4
Ending
Comments