Rocksteddy - Playing Safe Chords & Tabs

 

Playing Safe Chords & Tabs

Rocksteddy Chords & Tabs

Version: 2 Type: Tab

Playing Safe Tab

yea this is my first time tabbing a song but it sounds pretty much ok kaya hinay lang ok!?

support filipino bands!!

intro:

e|-------------------------------------------------------------------------|
B|-----7-----7---------7-----7---------5-----5---------2-----2-------------|
G|---8-----8-----8---8-----8-----8---6-----6-----6---3-----3-----3---x3----|
D|-9-----9-----9---8-----8-----8---6-----6-----6---4-----4-----4-----------|
A|-------------------------------------------------------------------------|
E|-------------------------------------------------------------------------|

pasok drums bass distortions

listen to the song para sa timing...

e|-------------------------------------------------------------------------|
B|-------------------------------------------------------------------------|
G|-------------------------------------------------------------------------|
D|--2--4--2--4--4x--4x--4x--4----------------------------------------------|
A|--2--4--2--4--4x--4x--2x--4-pause----------------------------------------|
E|--0--2--0--2--2x--2x--2x--2----------------------------------------------|

verse

e|-------------------------------------------------------------------------|
B|-7-----7--7------7---5------5--------------------------------------------|
G|-8---8----8----8-----6----6-------distortion-----------------------------|
D|-9-9------8--8-------6--6---------------------2--4-----------------------|
A|----------------------------------------------2--4-----------------------|
E|----------------------------------------------0--2-----------------------|

chorus

distortion
[ Tab from: http://www.guitartabs.cc/tabs/r/rocksteddy/playing_safe_tab_ver_2.html ]
e|--------------------------------------------|
B|--------------------------------------------|
G|-----8--------------------------------------|
D|--9--8--6--2--4------x2---------------------|
A|--9--6--6--2--4-----------------------------|
E|--7-----4--0--2-----------------------------|

then this

e|-------------------------------------------------------------------------|
B|-------------------------------------------------------------------------|
G|-------------------------------------------------------------------------|
D|--2--4--2--4--4x--4x--4x--4----------------------------------------------|
A|--2--4--2--4--4x--4x--2x--4-pause----------------------------------------|
E|--0--2--0--2--2x--2x--2x--2----------------------------------------------|

do verse...
do chorus...

solo

e|-----------------------------------------------------------|
B|-----------------------------------------------------------|
G|--4--4/3/11--9--11/13-11-9/8h9-8/6-6/4--4-4h6x-4x-4--------|
D|-----------------------------------------------------------|
A|-----------------------------------------------------------|
E|-----------------------------------------------------------|

e|------7--7h9--------7--7h9-9/11-11-11-11/12/16-14-12---19--|
B|--5/7---7-------5/7---7------------------------------------|
G|-----------------------------------------------------------|
D|-----------------------------------------------------------|
A|-----------------------------------------------------------|
E|-----------------------------------------------------------|

tapos un lang alam ko sa solo hehehe

"playing safe, hibernate sa likod ng..."

e|------------------------------------------------------------|
B|------------------------------------------------------------|
G|------------------------------------------------------------|
D|--2x--4x--2x--4x------------4x--4x--4x--4-------------------|
A|--2x--4x--2x--4x--x6--then--4x--4x--4x--4-------------------|
E|--0x--2x--0x--2x------------2x--2x--2x--2-------------------|

do choruse...

yea mdyo di kumpleto someone just jack these stabs and continue and fill in what i 
for questions marwin13@yahoo.com hit me up