Rocksteddy - Lagi Mo Na Lang Akong Dinededma Chords & Tabs

 

Lagi Mo Na Lang Akong Dinededma Chords & Tabs

Rocksteddy Chords & Tabs

Version: 1 Type: Bass Tab

Lagi Mo Na Lang Akong Dinededma Bass Tab

   
----------------------------------------------------------------------------
Lagi Mo Na Lang Akong Dinededma - Rocksteddy
----------------------------------------------------------------------------

Tabbed By : Leonard Eliz Ayudan
e-mail: layudan@yahoo.com

Tuning: EADG

tol pasensya na kung mali yung una kong gawa.Once ko lang kasi pinakinggan ito nung 
ko,sa radio lang dahil wala pa ko copy ng kanta nila..tol kung may reactions kayo please 
on my work...
Thanx sa mga nagcomment..


G-----------------|------------------|------------------|------------------|
D-----------------|------------------|------------------|------------------|
A-5-5-5-5-5-5-5-5-|------------------|------------------|------------------|
E-----------------|--3-3-3-3-3-3-3-3-|--2-2-2-2-2-2-2-2-|--3-3-3-3-3-3-3-3-|
  Matagal ko na.........

Refrain
G|-------------|---------------|---------------|-------------|
D|-------------|---------------|---------------|-------------|
A|-------------|---------------|---------------|-------------|
E|--0---0------|--2---2--------|-3--3-3-3-3-5--|--3-3-3-3-5--|
  Dahil kumukuha lang ng buwelo

G|---------------|---------------|----------------------|
D|---------------|---------------|----------------------|
A|---------------|---------------|----------------------|
E|--0---0--------|--2---2--------|--3335-3335-33333333--|
  Upang sabihin sa iyo.........
[ Tab from: http://www.guitartabs.cc/tabs/r/rocksteddy/lagi_mo_na_lang_akong_dinededma_btab.html ]
Chorus
G|--------------|--------------|--------------|--------------|
D|--------------|--------------|--------------|--------------|
A|--5-5-5h7-5-5-|--------------|--------------|--------------|
E|--------------|--0-0-0-2-0-0-|--5-5-5h7-5-5-|--3-3-3-5-3-3--|
  Mahal kita pero 'di mo lang alam
  Mahal kita pero 'di mo lang ramdam
  Mahal kita kahit lagi mo na lang akong tinitignan
  Mahal kita kahit di mo lang alam....wooooohhh!!

Verse II
------------------|------------------|------------------|------------------|
D-----------------|------------------|------------------|------------------|
A-5-5-5-5-5-5-5-5-|------------------|------------------|------------------|
E-----------------|--3-3-3-3-3-3-3-3-|--2-2-2-2-2-2-2-2-|--3-3-3-3-3-3-3-3-|
  Matagal ko nang gustong sabihin 'to
  Matagal ko nang gustong aminin sa'yo
  Sandali 'eto na at sasabihin ko na
  Ngayon na, mamaya o baka pwedeng bukas na

Repeat Refrain
Repeat Chorus
Adlib (do bassline on Chorus)
Bridge
G|-----------|-------------|--------------|----------|
D|-----------|-------------|--------------|----------|
A|-----------|-------------|--------------|----------|
E|--0---0----|--2---2------|-3--3-3-3-3-5-|-3-3-3-3-5|
  Ngunit kumukuha lang ng tyempo

G|------------|-------------|-----------------------|
D|------------|-------------|-----------------------|
A|------------|-------------|-----------------------|
E|--0---0-----|--2---2------|--33335-33335-33333333-|
  Upang sabihin sa iyo.........

Coda
G|--------------|--------------|--------------|----------------|
D|--------------|--------------|--------------|----------------|
A|--5-5-5h7-5-5-|--------------|--------------|----------------|
E|--------------|--0-0-0-2-0-0-|--5-5-5h7-5-5-|--3-3-3-5-5--3--|
  Mahal kita pero 'di mo lang alam
  Mahal kita pero 'di mo lang ramdam
  Mahal kita kahit lagi mo na lang akong tinitignan
  Mahal kita kahit lagi mo na lang akong dinededma...

| /  slide up
| \  slide down
| h  hammer-on
| p  pull-off
| ~  vibrato
| +  harmonic
| x  Mute note
===============================================================================