Rockstar - Parting Time Chords & Tabs

 

Rockstar Chords & Tabs

Version: 1 Type: Tab 0 ratings
1 star 2 stars 3 stars 4 stars 5 stars
comments

Parting Time Tab

   
Rockstar 2
Parting Time
1997
Submitted by: paramore_fans@yahoo.com


Tuning: standard EADGBe

Chords used:
A -      x02220
E/G# -   4xx45x
F#m -    244222
E -      022100
Esus4 -  022200
Bm -     x24432
A/c# -   x4222x
D -      xx0232
B -      x24442
F# -     244322
F#sus4 - 244422
F#/Bb -  214xxx
C#m -    x46654
G#m -    466444
B/D# -   x6444x

Intro: A-E/G#-F#m-E-D-A/c#-Bm-Esus4-E

Piano:
e|-------9-------12---10-9----9-----9--10--9--14--12--9--10--9-----------|
B|-10-12---12-10-----------12---10-----------------------------12-10--12-|
G|-----------------------------------------------------------------------|
D|-----------------------------------------------------------------------|
A|-----------------------------------------------------------------------|
E|-----------------------------------------------------------------------|

[ Tab from: http://www.guitartabs.cc/tabs/r/rockstar/parting_time_tab.html ]
Verse 1:
    A              E/G#         F#m
I remember the days when you're here with me
      D             A/c#                  Bm    Esus4-E
Those laughters and tears we'd shared for years hmmm..
A                E/G#       F#m
Memories that we had for so long it's me and you
D               A/c#      Bm           B   F#sus4-F#
Now you're gone away, you left me all alone
B     F#/Bb G#m          E                  B/D#
  Do un-----to to an but please don't leave me
     C#m      F#sus4-F#
will break my heart
    B           F#/Bb   G#m
Hey what should I do be by missing you
E                 B/D#               C#m           F#sus4
Please don't disappear these are the words wishing me
D                A/c#             Bm       A   Esus4-E
  Time and time again I wish that you were here


Chorus:
                A        E/G#            F#m       D
I don't want to lose you girl I need you back to me
E               A        E/G# F#m          D
I don't want to lose you baby Can't you see
E    A          E/G#         F#m       D E
Oh I need you, you've been a part of me


Post Chorus:
D   A/c#                Bm      A/c#
  I wish someday you'll be back home
D      A/c#          Bm       A/c#    D     
     A/c# Bm Esus4-E
  This time I really miss you darling Please come home


Interlude: A--E/G#--F#m--D--E (x3)


Guitar Solo: while doing interlude chords
e|-7h9-9---9-------------------------------------9-10-10p9----|
B|-----------12-10---10------------------9-10-12--------------|
G|-----------------11----9----11p9---9-9----------------------|
D|-------------------------12------------------------------11-|
A|------------------------------------------------------------|
E|------------------------------------------------------------|
then
e|----------------14-14\12-----------------------------------|
B|-9/12-12\9-------------------------------9------9-9h10--10-|
G|------------------------------11-9----11---11-9------------|
D|-----------11----------------------12----------------------|
A|-------------------------12--------------------------------|
E|-----------------------------------------------------------|
then
e|-----9--12----12-----12/14-17-14---14-12-------14-12-19--17-|
B|-12--------10----10----------------------15-----------------|
G|--------------------------------------------14--------------|
D|------------------------------------------------------------|
A|------------------------------------------------------------|
E|------------------------------------------------------------|


(Repeat Post Chorus)

Outro: A--E/G#--F#m--D--E--A(Hold)
Comments