Rockfour - Seatbelts Chords & Tabs

 

Seatbelts Chords & Tabs

Rockfour Chords & Tabs

Version: 1 Type: Tab 0 ratings
1 star 2 stars 3 stars 4 stars 5 stars
comments

Seatbelts Tab

   
           Dm             Am          Bd                   Gm


E-|----------1-----------0------------------------------------3-----|
B-|-------3-----------2--------------3---------------------3-----3--|
G-|----2-----------2--------------3-----3-------2-3-----3-----------|
D-|-0--------------2-----------3-----------3----2-5--5--------------|
A-|-------------0-----------1-----------------0---5-----------------|
E-|-----------------------------------------------3-----------------|



                 Dm            Dm              A           Bd
[ Tab from: http://www.guitartabs.cc/tabs/r/rockfour/seatbelts_tab.html ]
E-|---------------------------------1-----------0-------------------|
B-|-------------6----------------3-----------2--------------3-------|
G-|3----7-----7-----7---------2-----------2--------------3-----3----|
D-|--------7-----------7---0--------------2-----------3-----------3-|
A-|---5-5----------------5-------------0-----------1----------------|
E-|-----------------------------------------------------------------|



                       Gm                  Dm                Bd


E-|-------------3--------3--------------1---------------------------|
B-|----------------3-----3-----3-----3--------3-------------3-------|
G-|--2-3-----3--------3-----3-----2---------2---2--------3-----3----|
D-|--2-5--5--------------------0----------------------3-----------3-|
A-|0---5-------------------------------------------1----------------|
E-|----3------------------------------------------------------------|



      Bd     A                     Fdim     A

E-|---------------0--------0-----1---1--------0------------0--------|
B-|3-----------2-----2-----2--2--0----0-0------2--0--2--3---2-------|
G-|---3-----2-----------2-----2--1-1---1-------2---2--2--2--2-------|
D-|---------2--------------------0--------2-2-----------------------|
A-|------0--------------------------------0-------------------------|
E-|-----------------------------------------------------------------|
Comments